  0
SECTION
  2
HEADER
  9
$ACADVER
  1
AC1009
  9
$INSBASE
 10
0.0
 20
0.0
 30
0.0
  9
$EXTMIN
 10
-630.03844921481596
 20
-942.16250547688878
 30
-0.0015258207003583
  9
$EXTMAX
 10
630.03845508214863
 20
931.2479452990583
 30
0.0000000349246037
  9
$LIMMIN
 10
0.0
 20
0.0
  9
$LIMMAX
 10
0.0
 20
0.0
  9
$ORTHOMODE
 70
     0
  9
$REGENMODE
 70
     1
  9
$FILLMODE
 70
     1
  9
$QTEXTMODE
 70
     0
  9
$MIRRTEXT
 70
     1
  9
$DRAGMODE
 70
     2
  9
$LTSCALE
 40
35.559999999999988
  9
$OSMODE
 70
   231
  9
$ATTMODE
 70
     1
  9
$TEXTSIZE
 40
0.0
  9
$TRACEWID
 40
1.0
  9
$TEXTSTYLE
  7
STANDARD
  9
$CLAYER
  8
DATA
  9
$CELTYPE
  6
BYLAYER
  9
$CECOLOR
 62
   256
  9
$DIMSCALE
 40
1.0
  9
$DIMASZ
 40
0.18
  9
$DIMEXO
 40
0.0625
  9
$DIMDLI
 40
0.38
  9
$DIMRND
 40
0.0
  9
$DIMDLE
 40
0.0
  9
$DIMEXE
 40
0.18
  9
$DIMTP
 40
0.0
  9
$DIMTM
 40
0.0
  9
$DIMTXT
 40
0.18
  9
$DIMCEN
 40
0.09
  9
$DIMTSZ
 40
0.0
  9
$DIMTOL
 70
     0
  9
$DIMLIM
 70
     0
  9
$DIMTIH
 70
     1
  9
$DIMTOH
 70
     1
  9
$DIMSE1
 70
     0
  9
$DIMSE2
 70
     0
  9
$DIMTAD
 70
     0
  9
$DIMZIN
 70
     0
  9
$DIMBLK
  1

  9
$DIMASO
 70
     1
  9
$DIMSHO
 70
     1
  9
$DIMPOST
  1

  9
$DIMAPOST
  1

  9
$DIMALT
 70
     0
  9
$DIMALTD
 70
     2
  9
$DIMALTF
 40
25.399999999999999
  9
$DIMLFAC
 40
1.0
  9
$DIMTOFL
 70
     0
  9
$DIMTVP
 40
0.0
  9
$DIMTIX
 70
     0
  9
$DIMSOXD
 70
     0
  9
$DIMSAH
 70
     0
  9
$DIMBLK1
  1

  9
$DIMBLK2
  1

  9
$DIMSTYLE
  2
STANDARD
  9
$DIMCLRD
 70
     0
  9
$DIMCLRE
 70
     0
  9
$DIMCLRT
 70
     0
  9
$DIMTFAC
 40
1.0
  9
$DIMGAP
 40
0.09
  9
$LUNITS
 70
     2
  9
$LUPREC
 70
     4
  9
$SKETCHINC
 40
0.1
  9
$FILLETRAD
 40
0.0
  9
$AUNITS
 70
     0
  9
$AUPREC
 70
     0
  9
$MENU
  1
acad
  9
$ELEVATION
 40
0.0
  9
$PELEVATION
 40
0.0
  9
$THICKNESS
 40
0.0
  9
$LIMCHECK
 70
     0
  9
$BLIPMODE
 70
     0
  9
$CHAMFERA
 40
0.0
  9
$CHAMFERB
 40
0.0
  9
$SKPOLY
 70
     0
  9
$TDCREATE
 40
2456630.569386574
  9
$TDUPDATE
 40
2456630.5752632869
  9
$TDINDWG
 40
0.0003630671
  9
$TDUSRTIMER
 40
0.0003630093
  9
$USRTIMER
 70
     1
  9
$ANGBASE
 50
0.0
  9
$ANGDIR
 70
     0
  9
$PDMODE
 70
     1
  9
$PDSIZE
 40
-2.0
  9
$PLINEWID
 40
0.0
  9
$COORDS
 70
     2
  9
$SPLFRAME
 70
     0
  9
$SPLINETYPE
 70
     6
  9
$SPLINESEGS
 70
     8
  9
$ATTDIA
 70
     0
  9
$ATTREQ
 70
     1
  9
$HANDLING
 70
     1
  9
$HANDSEED
  5
674
  9
$SURFTAB1
 70
     6
  9
$SURFTAB2
 70
     6
  9
$SURFTYPE
 70
     6
  9
$SURFU
 70
     6
  9
$SURFV
 70
     6
  9
$UCSNAME
  2

  9
$UCSORG
 10
0.0
 20
0.0
 30
0.0
  9
$UCSXDIR
 10
1.0
 20
0.0
 30
0.0
  9
$UCSYDIR
 10
0.0
 20
1.0
 30
0.0
  9
$PUCSNAME
  2

  9
$PUCSORG
 10
0.0
 20
0.0
 30
0.0
  9
$PUCSXDIR
 10
1.0
 20
0.0
 30
0.0
  9
$PUCSYDIR
 10
0.0
 20
1.0
 30
0.0
  9
$USERI1
 70
     0
  9
$USERI2
 70
     0
  9
$USERI3
 70
     0
  9
$USERI4
 70
     0
  9
$USERI5
 70
     0
  9
$USERR1
 40
0.0
  9
$USERR2
 40
0.0
  9
$USERR3
 40
0.0
  9
$USERR4
 40
0.0
  9
$USERR5
 40
0.0
  9
$WORLDVIEW
 70
     1
  9
$SHADEDGE
 70
     3
  9
$SHADEDIF
 70
    70
  9
$TILEMODE
 70
     1
  9
$MAXACTVP
 70
    64
  9
$PLIMCHECK
 70
     0
  9
$PEXTMIN
 10
1.0000000000000000E+020
 20
1.0000000000000000E+020
 30
1.0000000000000000E+020
  9
$PEXTMAX
 10
-1.0000000000000000E+020
 20
-1.0000000000000000E+020
 30
-1.0000000000000000E+020
  9
$PLIMMIN
 10
0.0
 20
0.0
  9
$PLIMMAX
 10
12.0
 20
9.0
  9
$UNITMODE
 70
     0
  9
$VISRETAIN
 70
     0
  9
$PLINEGEN
 70
     1
  9
$PSLTSCALE
 70
     0
  0
ENDSEC
  0
SECTION
  2
TABLES
  0
TABLE
  2
VPORT
 70
     1
  0
VPORT
  2
*ACTIVE
 70
     0
 10
0.0
 20
0.0
 11
1.0
 21
1.0
 12
0.0000029336663374
 22
-5.4572800889152404
 13
0.0
 23
0.0
 14
1.0
 24
1.0
 15
0.0
 25
0.0
 16
0.0
 26
0.0
 36
1.0
 17
0.0
 27
0.0
 37
0.0
 40
1888.1617141678839
 41
2.1787122207621552
 42
50.0
 43
0.0
 44
0.0
 50
0.0
 51
0.0
 71
     0
 72
  2000
 73
     1
 74
     1
 75
     0
 76
     0
 77
     0
 78
     0
  0
ENDTAB
  0
TABLE
  2
LTYPE
 70
    11
  0
LTYPE
  2
CONTINUOUS
 70
     0
  3
Solid line
 72
    65
 73
     0
 40
0.0
  0
LTYPE
  2
STYLE_01
 70
     0
  3

 72
    65
 73
     2
 40
0.4166412353515625
 49
0.208282470703125
 49
-0.2083587646484375
  0
LTYPE
  2
STYLE_02
 70
     0
  3

 72
    65
 73
     2
 40
0.694427490234375
 49
0.4860687255859375
 49
-0.2083587646484375
  0
LTYPE
  2
STYLE_05
 70
     0
  3

 72
    65
 73
     2
 40
0.208282470703125
 49
0.069427490234375
 49
-0.13885498046875
  0
ENDTAB
  0
TABLE
  2
LAYER
 70
     5
  0
LAYER
  2
0
 70
     0
 62
     7
  6
CONTINUOUS
  0
LAYER
  2
DATA
 70
     0
 62
     7
  6
CONTINUOUS
  0
LAYER
  2
HIBINO-BASE
 70
     0
 62
     7
  6
CONTINUOUS
  0
LAYER
  2
SPEC
 70
     0
 62
     7
  6
CONTINUOUS
  0
LAYER
  2
DIMNSIONS
 70
     0
 62
     7
  6
CONTINUOUS
  0
ENDTAB
  0
TABLE
  2
STYLE
 70
     3
  0
STYLE
  2
STANDARD
 70
     0
 40
0.0
 41
1.0
 50
0.0
 71
     0
 42
0.0
  3
txt
  4
BIGFONT.SHX
  0
ENDTAB
  0
TABLE
  2
VIEW
 70
     0
  0
ENDTAB
  0
TABLE
  2
UCS
 70
     0
  0
ENDTAB
  0
TABLE
  2
APPID
 70
     4
  0
APPID
  2
ACAD
 70
     0
  0
APPID
  2
ACADANNOTATIVE
 70
     0
  0
APPID
  2
ACAD_NAV_VCDISPLAY
 70
     0
  0
APPID
  2
ACAD_MLEADERVER
 70
     0
  0
ENDTAB
  0
TABLE
  2
DIMSTYLE
 70
     2
  0
DIMSTYLE
  2
STANDARD
 70
     0
  3

  4

  5

  6

  7

 40
1.0
 41
0.18
 42
0.0625
 43
0.38
 44
0.18
 45
0.0
 46
0.0
 47
0.0
 48
0.0
140
0.18
141
0.09
142
0.0
143
25.399999999999999
144
1.0
145
0.0
146
1.0
147
0.09
 71
     0
 72
     0
 73
     1
 74
     1
 75
     0
 76
     0
 77
     0
 78
     0
170
     0
171
     2
172
     0
173
     0
174
     0
175
     0
176
     0
177
     0
178
     0
  0
ENDTAB
  0
ENDSEC
  0
SECTION
  2
BLOCKS
  0
BLOCK
  8
0
  2
$MODEL_SPACE
 70
     0
 10
0.0
 20
0.0
 30
0.0
  3
$MODEL_SPACE
  1

  0
ENDBLK
  5
5BE
  8
0
  0
BLOCK
 67
     1
  8
0
  2
$PAPER_SPACE
 70
     0
 10
0.0
 20
0.0
 30
0.0
  3
$PAPER_SPACE
  1

  0
ENDBLK
  5
5BA
 67
     1
  8
0
  0
ENDSEC
  0
SECTION
  2
ENTITIES
  0
LINE
  5
2C
  8
HIBINO-BASE
  6
CONTINUOUS
 62
     7
 10
-629.99999999999977
 20
931.19088999999997
 30
0.0
 11
629.99999999999977
 21
931.19088999999997
 31
0.0
  0
LINE
  5
2D
  8
HIBINO-BASE
  6
CONTINUOUS
 62
     7
 10
629.99999999999977
 20
-888.80910999999981
 30
0.0
 11
-629.99999999999977
 21
-888.80910999999981
 31
0.0
  0
LINE
  5
2E
  8
HIBINO-BASE
  6
CONTINUOUS
 62
     7
 10
-629.99999999999977
 20
-888.80910999999981
 30
0.0
 11
-629.99999999999977
 21
931.19088999999997
 31
0.0
  0
LINE
  5
2F
  8
HIBINO-BASE
  6
CONTINUOUS
 62
     7
 10
629.99999999999977
 20
931.19088999999997
 30
0.0
 11
629.99999999999977
 21
-888.80910999999981
 31
0.0
  0
LINE
  5
30
  8
HIBINO-BASE
  6
CONTINUOUS
 62
     7
 10
0.0000000000000497
 20
-731.30910999999981
 30
0.0
 11
629.99999999999977
 21
-731.30910999999981
 31
0.0
  0
LINE
  5
31
  8
HIBINO-BASE
  6
CONTINUOUS
 62
     7
 10
0.0000000000000497
 20
-888.80910999999981
 30
0.0
 11
0.0000000000000497
 21
-731.30910999999981
 31
0.0
  0
TEXT
  5
32
  8
HIBINO-BASE
 62
     7
 10
6.3000000000000878
 20
-748.8699633333332
 30
0.0
 40
11.401888020833329
  1
NOTE
 41
0.7
 11
6.3000000000000886
 21
-737.46807531249999
 31
0.0
 73
     3
  0
LINE
  5
33
  8
HIBINO-BASE
  6
CONTINUOUS
 62
     7
 10
245.00000000000011
 20
-888.80910999999981
 30
0.0
 11
245.00000000000011
 21
-731.30910999999981
 31
0.0
  0
TEXT
  5
34
  8
HIBINO-BASE
 62
     7
 10
251.30000000000001
 20
-748.8699633333332
 30
0.0
 40
11.401888020833329
  1
TITLE
 41
0.7
 11
251.30000000000001
 21
-737.46807531249999
 31
0.0
 73
     3
  0
LINE
  5
35
  8
HIBINO-BASE
  6
CONTINUOUS
 62
     7
 10
0.0000000000000497
 20
-818.80910999999969
 30
0.0
 11
629.99999999999977
 21
-818.80910999999969
 31
0.0
  0
TEXT
  5
36
  8
HIBINO-BASE
 62
     7
 10
338.7999999999999
 20
-835.97572333333312
 30
0.0
 40
11.401888020833329
  1
DRAWN
 41
0.7
 11
338.7999999999999
 21
-824.5738353124998
 31
0.0
 73
     3
  0
TEXT
  5
37
  8
HIBINO-BASE
 62
     7
 10
163.7999999999999
 20
-835.97572333333312
 30
0.0
 40
11.401888020833329
  1
DATE
 41
0.7
 11
163.7999999999999
 21
-824.5738353124998
 31
0.0
 73
     3
  0
TEXT
  5
38
  8
HIBINO-BASE
 62
     7
 10
93.799999999999997
 20
-835.97572333333312
 30
0.0
 40
11.401888020833329
  1
SCALE
 41
0.7
 11
93.799999999999997
 21
-824.5738353124998
 31
0.0
 73
     3
  0
TEXT
  5
39
  8
HIBINO-BASE
 62
     7
 10
251.30000000000001
 20
-835.97572333333312
 30
0.0
 40
11.401888020833329
  1
DESIGN
 41
0.7
 11
251.30000000000001
 21
-824.5738353124998
 31
0.0
 73
     3
  0
TEXT
  5
3A
  8
HIBINO-BASE
 62
     7
 10
513.79999999999984
 20
-835.97572333333312
 30
0.0
 40
11.401888020833329
  1
DRAWING NO.
 41
0.7
 11
513.79999999999984
 21
-824.5738353124998
 31
0.0
 73
     3
  0
TEXT
  5
3B
  8
HIBINO-BASE
 62
     7
 10
426.29999999999978
 20
-835.97572333333312
 30
0.0
 40
11.401888020833329
  1
CHECK
 41
0.7
 11
426.29999999999978
 21
-824.5738353124998
 31
0.0
 73
     3
  0
LINE
  5
3C
  8
HIBINO-BASE
  6
CONTINUOUS
 62
     7
 10
100.625
 20
-880.05910999999981
 30
0.0
 11
126.8750000000001
 21
-853.80910999999992
 31
0.0
  0
TEXT
  5
3D
  8
HIBINO-BASE
 62
     7
 10
96.250000000000057
 20
-861.57171333333349
 30
0.0
 40
11.401888020833329
  1
1
 41
0.7
 11
96.250000000000057
 21
-850.16982531250005
 31
0.0
 73
     3
  0
LINE
  5
3E
  8
HIBINO-BASE
  6
CONTINUOUS
 62
     7
 10
87.500000000000057
 20
-888.80910999999981
 30
0.0
 11
87.500000000000057
 21
-818.80910999999969
 31
0.0
  0
LINE
  5
3F
  8
HIBINO-BASE
  6
CONTINUOUS
 62
     7
 10
157.49999999999989
 20
-888.80910999999981
 30
0.0
 11
157.49999999999989
 21
-818.80910999999969
 31
0.0
  0
LINE
  5
40
  8
HIBINO-BASE
  6
CONTINUOUS
 62
     7
 10
332.49999999999989
 20
-818.80910999999969
 30
0.0
 11
332.49999999999989
 21
-888.80910999999981
 31
0.0
  0
LINE
  5
41
  8
HIBINO-BASE
  6
CONTINUOUS
 62
     7
 10
507.50000000000011
 20
-818.80910999999969
 30
0.0
 11
507.50000000000011
 21
-888.80910999999981
 31
0.0
  0
LINE
  5
42
  8
HIBINO-BASE
  6
CONTINUOUS
 62
     7
 10
419.99999999999989
 20
-888.80910999999981
 30
0.0
 11
419.99999999999989
 21
-818.80910999999969
 31
0.0
  0
TEXT
  5
43
  8
HIBINO-BASE
 62
     7
 10
163.49578000000011
 20
-868.76358333333314
 30
0.0
 40
11.401888020833329
  1
'13.12.
 41
0.7
 11
163.49578000000011
 21
-857.36169531249982
 31
0.0
 73
     3
  0
TEXT
  5
44
  8
HIBINO-BASE
 62
     7
 10
125.3849852276762
 20
-878.66356802138762
 30
0.0
 40
11.401888020833329
  1
7
 41
0.7
 11
125.3849852276762
 21
-867.26168000055441
 31
0.0
 73
     3
  0
TEXT
  5
45
  8
HIBINO-BASE
 62
     7
 10
343.0406700772424
 20
-868.76358333333314
 30
0.0
 40
11.401888020833329
  1
Ootake
 41
0.7
 11
343.0406700772424
 21
-857.36169531249982
 31
0.0
 73
     3
  0
TEXT
  5
46
  8
HIBINO-BASE
 62
     7
 10
27.183333333333529
 20
-874.97710999999981
 30
0.0
 40
22.803776041666669
  1
A4
 41
0.7
 11
27.183333333333529
 21
-852.17333395833305
 31
0.0
 73
     3
  0
TEXT
  5
47
  8
HIBINO-BASE
 62
     7
 10
6.708333333333349
 20
-837.14529500000003
 30
0.0
 40
11.401888020833329
  1
PAPER SIZE
 41
0.7
 11
6.708333333333349
 21
-825.74340697916671
 31
0.0
 73
     3
  0
TEXT
  5
48
  8
HIBINO-BASE
 62
     7
 10
-579.71199999999965
 20
-933.66985460000001
 30
0.0
 40
25.200309257812499
  1
Hibino Corporation
 41
0.7
 11
-579.71199999999965
 21
-908.46954534218764
 31
0.0
 73
     3
  0
TEXT
  5
49
  8
HIBINO-BASE
 62
     7
 10
350.4787300000001
 20
-933.66985460000001
 30
0.0
 40
25.200309257812499
  1
ヒビノ株式会社
 41
0.7
 11
350.4787300000001
 21
-908.46954534218764
 31
0.0
 73
     3
  0
LINE
  5
4A
  8
SPEC
  6
CONTINUOUS
 62
     7
 10
-577.49999999999955
 20
861.19088999999985
 30
0.0
 11
455.0
 21
861.19088999999985
 31
0.0
  0
LINE
  5
4B
  8
SPEC
  6
CONTINUOUS
 62
     7
 10
-577.49999999999955
 20
834.94088999999997
 30
0.0
 11
455.0
 21
834.94088999999997
 31
0.0
  0
LINE
  5
4C
  8
SPEC
  6
CONTINUOUS
 62
     7
 10
-577.49999999999955
 20
729.94088999999985
 30
0.0
 11
455.0
 21
729.94088999999985
 31
0.0
  0
LINE
  5
4D
  8
SPEC
  6
CONTINUOUS
 62
     7
 10
-577.49999999999955
 20
756.19088999999985
 30
0.0
 11
455.0
 21
756.19088999999985
 31
0.0
  0
LINE
  5
4E
  8
SPEC
  6
CONTINUOUS
 62
     7
 10
-577.49999999999955
 20
782.44088999999985
 30
0.0
 11
455.0
 21
782.44088999999985
 31
0.0
  0
LINE
  5
4F
  8
SPEC
  6
CONTINUOUS
 62
     7
 10
-577.49999999999955
 20
703.69089000000019
 30
0.0
 11
455.0
 21
703.69089000000019
 31
0.0
  0
LINE
  5
50
  8
SPEC
  6
CONTINUOUS
 62
     7
 10
-577.49999999999955
 20
651.19089000000008
 30
0.0
 11
455.0
 21
651.19089000000008
 31
0.0
  0
LINE
  5
51
  8
SPEC
  6
CONTINUOUS
 62
     7
 10
-577.49999999999955
 20
677.44089000000008
 30
0.0
 11
455.0
 21
677.44089000000008
 31
0.0
  0
LINE
  5
52
  8
SPEC
  6
CONTINUOUS
 62
     7
 10
-577.49999999999955
 20
624.94089000000019
 30
0.0
 11
455.0
 21
624.94089000000019
 31
0.0
  0
LINE
  5
53
  8
SPEC
  6
CONTINUOUS
 62
     7
 10
-577.49999999999955
 20
598.69089000000019
 30
0.0
 11
455.0
 21
598.69089000000019
 31
0.0
  0
LINE
  5
54
  8
SPEC
  6
CONTINUOUS
 62
     7
 10
-577.49999999999955
 20
808.69088999999985
 30
0.0
 11
455.0
 21
808.69088999999985
 31
0.0
  0
LINE
  5
55
  8
SPEC
  6
CONTINUOUS
 62
     7
 10
-577.49999999999955
 20
546.19088999999997
 30
0.0
 11
455.0
 21
546.19088999999997
 31
0.0
  0
LINE
  5
56
  8
SPEC
  6
CONTINUOUS
 62
     7
 10
-577.49999999999955
 20
861.19088999999985
 30
0.0
 11
-577.49999999999955
 21
519.94088999999997
 31
0.0
  0
TEXT
  5
57
  8
SPEC
 62
     7
 10
-568.74999999999955
 20
870.94377999999961
 30
0.0
 40
17.102832031249999
  1
仕様
 41
0.7
 11
-568.74999999999955
 21
888.04661203124965
 31
0.0
 73
     3
  0
LINE
  5
58
  8
SPEC
  6
CONTINUOUS
 62
     7
 10
-349.99999999999972
 20
861.19088999999985
 30
0.0
 11
-349.99999999999972
 21
519.94088999999997
 31
0.0
  0
LINE
  5
59
  8
SPEC
  6
CONTINUOUS
 62
     7
 10
455.0
 20
861.19088999999985
 30
0.0
 11
455.0
 21
519.94088999999997
 31
0.0
  0
TEXT
  5
5A
  8
SPEC
 62
     7
 10
-343.69999999999987
 20
525.45631444444439
 30
0.0
 40
13.302202690972219
  1
ウィンドスクリーン
 41
0.7
 11
-343.69999999999987
 21
538.75851713541658
 31
0.0
 73
     3
  0
LINE
  5
5B
  8
SPEC
  6
CONTINUOUS
 62
     7
 10
-577.49999999999955
 20
572.44089000000019
 30
0.0
 11
455.0
 21
572.44089000000019
 31
0.0
  0
LINE
  5
5C
  8
SPEC
  6
CONTINUOUS
 62
     7
 10
-577.49999999999955
 20
519.94088999999997
 30
0.0
 11
455.0
 21
519.94088999999997
 31
0.0
  0
TEXT
  5
5D
  8
SPEC
 62
     7
 10
-571.1999999999997
 20
840.45631444444427
 30
0.0
 40
13.302202690972219
  1
形式
 41
0.7
 11
-571.1999999999997
 21
853.75851713541658
 31
0.0
 73
     3
  0
TEXT
  5
5E
  8
SPEC
 62
     7
 10
-343.69999999999987
 20
840.45631444444427
 30
0.0
 40
13.302202690972219
  1
コンデンサー型 
 41
0.7
 11
-343.69999999999987
 21
853.75851713541658
 31
0.0
 73
     3
  0
TEXT
  5
5F
  8
SPEC
 62
     7
 10
-559.99999999999955
 20
490.54667044444437
 30
0.0
 40
13.302202690972219
  1
※ ON/OFF スイッチの動作やLED ライト、ローカットフィルターのON/OFF を切り替える場合は、
 41
0.7
 11
-559.99999999999955
 21
503.84887313541668
 31
0.0
 73
     3
  0
TEXT
  5
60
  8
SPEC
 62
     7
 10
-559.99999999999955
 20
473.26055933333328
 30
0.0
 40
13.302202690972219
  1
　 一度マイクケーブルを外し、本機裏面の半固定ロータ リースイッチを回してください。
 41
0.7
 11
-559.99999999999955
 21
486.56276202430558
 31
0.0
 73
     3
  0
TEXT
  5
61
  8
SPEC
 62
     7
 10
-571.1999999999997
 20
814.20631444444439
 30
0.0
 40
13.302202690972219
  1
指向特性
 41
0.7
 11
-571.1999999999997
 21
827.50851713541647
 31
0.0
 73
     3
  0
TEXT
  5
62
  8
SPEC
 62
     7
 10
-343.69999999999987
 20
814.20631444444439
 30
0.0
 40
13.302202690972219
  1
カーディオイド
 41
0.7
 11
-343.69999999999987
 21
827.50851713541647
 31
0.0
 73
     3
  0
TEXT
  5
63
  8
SPEC
 62
     7
 10
-571.1999999999997
 20
787.95631444444439
 30
0.0
 40
13.302202690972219
  1
周波数特性
 41
0.7
 11
-571.1999999999997
 21
801.25851713541658
 31
0.0
 73
     3
  0
TEXT
  5
64
  8
SPEC
 62
     7
 10
-343.69999999999987
 20
787.95631444444439
 30
0.0
 40
13.302202690972219
  1
70Hz～18kHz
 41
0.7
 11
-343.69999999999987
 21
801.25851713541658
 31
0.0
 73
     3
  0
TEXT
  5
65
  8
SPEC
 62
     7
 10
-571.1999999999997
 20
761.70631444444427
 30
0.0
 40
13.302202690972219
  1
開回路感度
 41
0.7
 11
-571.1999999999997
 21
775.00851713541647
 31
0.0
 73
     3
  0
TEXT
  5
66
  8
SPEC
 62
     7
 10
-343.69999999999987
 20
761.70631444444427
 30
0.0
 40
13.302202690972219
  1
-35dB re 1V/Pa
 41
0.7
 11
-343.69999999999987
 21
775.00851713541647
 31
0.0
 73
     3
  0
TEXT
  5
67
  8
SPEC
 62
     7
 10
-343.69999999999987
 20
735.45631444444427
 30
0.0
 40
13.302202690972219
  1
125dB SPL(THD 1%%%)
 41
0.7
 11
-343.69999999999987
 21
748.75851713541647
 31
0.0
 73
     3
  0
TEXT
  5
68
  8
SPEC
 62
     7
 10
-571.1999999999997
 20
735.45631444444427
 30
0.0
 40
13.302202690972219
  1
最大音圧レベル
 41
0.7
 11
-571.1999999999997
 21
748.75851713541647
 31
0.0
 73
     3
  0
TEXT
  5
69
  8
SPEC
 62
     7
 10
-571.1999999999997
 20
709.20631444444416
 30
0.0
 40
13.302202690972219
  1
等価雑音レベル
 41
0.7
 11
-571.1999999999997
 21
722.50851713541635
 31
0.0
 73
     3
  0
TEXT
  5
6A
  8
SPEC
 62
     7
 10
-343.69999999999987
 20
709.20631444444416
 30
0.0
 40
13.302202690972219
  1
21dB SPL(A ウェイト)
 41
0.7
 11
-343.69999999999987
 21
722.50851713541635
 31
0.0
 73
     3
  0
TEXT
  5
6B
  8
SPEC
 62
     7
 10
-572.59999999999991
 20
685.63278155555565
 30
0.0
 40
13.302202690972219
  1
ローカットフィルター
 41
0.7
 11
-572.59999999999991
 21
698.93498424652785
 31
0.0
 73
     3
  0
TEXT
  5
6C
  8
SPEC
 62
     7
 10
-343.69999999999987
 20
682.9563144444445
 30
0.0
 40
13.302202690972219
  1
150Hz(12dB/oct) ※ロータリースイッチで設定
 41
0.7
 11
-343.69999999999987
 21
696.2585171354167
 31
0.0
 73
     3
  0
TEXT
  5
6D
  8
SPEC
 62
     7
 10
-571.1999999999997
 20
656.70631444444439
 30
0.0
 40
13.302202690972219
  1
インピーダンス
 41
0.7
 11
-571.1999999999997
 21
670.00851713541658
 31
0.0
 73
     3
  0
TEXT
  5
6E
  8
SPEC
 62
     7
 10
-343.69999999999987
 20
656.70631444444439
 30
0.0
 40
13.302202690972219
  1
600\U+03A9以下
 41
0.7
 11
-343.69999999999987
 21
670.00851713541658
 31
0.0
 73
     3
  0
TEXT
  5
6F
  8
SPEC
 62
     7
 10
-571.1999999999997
 20
630.45631444444439
 30
0.0
 40
13.302202690972219
  1
電源
 41
0.7
 11
-571.1999999999997
 21
643.75851713541658
 31
0.0
 73
     3
  0
TEXT
  5
70
  8
SPEC
 62
     7
 10
-343.69999999999987
 20
630.45631444444439
 30
0.0
 40
13.302202690972219
  1
ファンタム DC9～52V/3mA以下
 41
0.7
 11
-343.69999999999987
 21
643.75851713541658
 31
0.0
 73
     3
  0
TEXT
  5
71
  8
SPEC
 62
     7
 10
-343.69999999999987
 20
604.2063144444445
 30
0.0
 40
13.302202690972219
  1
XLR3ピン
 41
0.7
 11
-343.69999999999987
 21
617.5085171354167
 31
0.0
 73
     3
  0
TEXT
  5
72
  8
SPEC
 62
     7
 10
-571.1999999999997
 20
604.2063144444445
 30
0.0
 40
13.302202690972219
  1
コネクター
 41
0.7
 11
-571.1999999999997
 21
617.5085171354167
 31
0.0
 73
     3
  0
TEXT
  5
73
  8
SPEC
 62
     7
 10
-571.1999999999997
 20
577.9563144444445
 30
0.0
 40
13.302202690972219
  1
寸法(W\U+00D7H\U+00D7D)
 41
0.7
 11
-571.1999999999997
 21
591.2585171354167
 31
0.0
 73
     3
  0
TEXT
  5
74
  8
SPEC
 62
     7
 10
-343.69999999999987
 20
577.9563144444445
 30
0.0
 40
13.302202690972219
  1
91\U+00D7336\U+00D7142m(除突起部)
 41
0.7
 11
-343.69999999999987
 21
591.2585171354167
 31
0.0
 73
     3
  0
TEXT
  5
75
  8
SPEC
 62
     7
 10
-343.69999999999987
 20
551.7063144444445
 30
0.0
 40
13.302202690972219
  1
790g
 41
0.7
 11
-343.69999999999987
 21
565.0085171354167
 31
0.0
 73
     3
  0
TEXT
  5
76
  8
SPEC
 62
     7
 10
-571.1999999999997
 20
551.7063144444445
 30
0.0
 40
13.302202690972219
  1
質量
 41
0.7
 11
-571.1999999999997
 21
565.0085171354167
 31
0.0
 73
     3
  0
TEXT
  5
77
  8
SPEC
 62
     7
 10
-571.1999999999997
 20
525.45631444444439
 30
0.0
 40
13.302202690972219
  1
付属品
 41
0.7
 11
-571.1999999999997
 21
538.75851713541658
 31
0.0
 73
     3
  0
TEXT
  5
78
  8
DIMNSIONS
 62
     7
 10
-139.99999999999989
 20
-802.92267999999979
 30
0.0
 40
17.102832031249999
  1
(単位：mm)
 41
0.7
 11
-139.99999999999989
 21
-785.81984796874974
 31
0.0
 73
     3
  0
LINE
  5
79
  8
DIMNSIONS
  6
CONTINUOUS
 62
     7
 10
-309.4975477328324
 20
-600.0
 30
0.0
 11
-339.0
 21
-600.0
 31
0.0
  0
LINE
  5
7A
  8
DIMNSIONS
  6
CONTINUOUS
 62
     7
 10
-280.37068257567319
 20
-559.00000000000125
 30
0.0
 11
-339.0
 21
-559.00000000000125
 31
0.0
  0
LINE
  5
7B
  8
DIMNSIONS
  6
CONTINUOUS
 62
     7
 10
-325.0
 20
-559.00000000000125
 30
0.0
 11
-325.0
 21
-502.93901909683223
 31
0.0
  0
LINE
  5
7C
  8
DIMNSIONS
  6
CONTINUOUS
 62
     7
 10
-325.0
 20
-600.0
 30
0.0
 11
-325.0
 21
-559.00000000000125
 31
0.0
  0
LINE
  5
7D
  8
DIMNSIONS
  6
CONTINUOUS
 62
     7
 10
-325.0
 20
-600.0
 30
0.0
 11
-329.69027856605169
 21
-582.49564208984361
 31
0.0
  0
LINE
  5
7E
  8
DIMNSIONS
  6
CONTINUOUS
 62
     7
 10
-325.0
 20
-600.0
 30
0.0
 11
-320.30972143394831
 21
-582.49564208984361
 31
0.0
  0
LINE
  5
7F
  8
DIMNSIONS
  6
CONTINUOUS
 62
     7
 10
-325.0
 20
-559.00000000000125
 30
0.0
 11
-320.30972143394831
 21
-576.50435791015752
 31
0.0
  0
LINE
  5
80
  8
DIMNSIONS
  6
CONTINUOUS
 62
     7
 10
-325.0
 20
-559.00000000000125
 30
0.0
 11
-329.69027856605169
 21
-576.50435791015752
 31
0.0
  0
TEXT
  5
81
  8
DIMNSIONS
 62
     7
 10
-330.9572222222223
 20
-552.32790798572091
 30
0.0
 40
19.003146701388879
  1
41.0
 50
90.0
 41
0.7
 11
-349.96036892361121
 21
-552.32790798572091
 31
0.0
 73
     3
  0
LINE
  5
82
  8
DIMNSIONS
  6
CONTINUOUS
 62
     7
 10
-297.4999999999996
 20
-600.99999999999977
 30
0.0
 11
-339.0
 21
-600.99999999999977
 31
0.0
  0
LINE
  5
83
  8
DIMNSIONS
  6
CONTINUOUS
 62
     7
 10
-309.4975477328324
 20
-600.0
 30
0.0
 11
-339.0
 21
-600.0
 31
0.0
  0
LINE
  5
84
  8
DIMNSIONS
  6
CONTINUOUS
 62
     7
 10
-325.0
 20
-600.0
 30
0.0
 11
-325.0
 21
-600.99999999999977
 31
0.0
  0
LINE
  5
85
  8
DIMNSIONS
  6
CONTINUOUS
 62
     7
 10
-325.0
 20
-600.99999999999977
 30
0.0
 11
-325.0
 21
-652.79573567708326
 31
0.0
  0
LINE
  5
86
  8
DIMNSIONS
  6
CONTINUOUS
 62
     7
 10
-325.0
 20
-600.99999999999977
 30
0.0
 11
-320.30972143394831
 21
-618.50435791015605
 31
0.0
  0
LINE
  5
87
  8
DIMNSIONS
  6
CONTINUOUS
 62
     7
 10
-325.0
 20
-600.99999999999977
 30
0.0
 11
-329.69027856605169
 21
-618.50435791015605
 31
0.0
  0
LINE
  5
88
  8
DIMNSIONS
  6
CONTINUOUS
 62
     7
 10
-325.0
 20
-600.0
 30
0.0
 11
-325.0
 21
-565.0
 31
0.0
  0
LINE
  5
89
  8
DIMNSIONS
  6
CONTINUOUS
 62
     7
 10
-325.0
 20
-600.0
 30
0.0
 11
-329.69027856605169
 21
-582.49564208984361
 31
0.0
  0
LINE
  5
8A
  8
DIMNSIONS
  6
CONTINUOUS
 62
     7
 10
-325.0
 20
-600.0
 30
0.0
 11
-320.30972143394831
 21
-582.49564208984361
 31
0.0
  0
TEXT
  5
8B
  8
DIMNSIONS
 62
     7
 10
-330.9572222222223
 20
-652.79573567708326
 30
0.0
 40
19.003146701388879
  1
1.0
 50
90.0
 41
0.7
 11
-349.96036892361121
 21
-652.79573567708326
 31
0.0
 73
     3
  0
LINE
  5
8C
  8
DIMNSIONS
  6
CONTINUOUS
 62
     7
 10
-295.50000000000028
 20
-174.28189845941989
 30
0.0
 11
-295.50000000000028
 21
-239.0
 31
0.0
  0
LINE
  5
8D
  8
DIMNSIONS
  6
CONTINUOUS
 62
     7
 10
-204.50000000000031
 20
-174.28189845941989
 30
0.0
 11
-204.50000000000031
 21
-239.0
 31
0.0
  0
LINE
  5
8E
  8
DIMNSIONS
  6
CONTINUOUS
 62
     7
 10
-295.50000000000028
 20
-225.0
 30
0.0
 11
-204.50000000000031
 21
-225.0
 31
0.0
  0
LINE
  5
8F
  8
DIMNSIONS
  6
CONTINUOUS
 62
     7
 10
-295.50000000000028
 20
-225.0
 30
0.0
 11
-277.9956420898439
 21
-220.3097214339484
 31
0.0
  0
LINE
  5
90
  8
DIMNSIONS
  6
CONTINUOUS
 62
     7
 10
-295.50000000000028
 20
-225.0
 30
0.0
 11
-277.9956420898439
 21
-229.69027856605169
 31
0.0
  0
LINE
  5
91
  8
DIMNSIONS
  6
CONTINUOUS
 62
     7
 10
-204.50000000000031
 20
-225.0
 30
0.0
 11
-222.0043579101565
 21
-229.69027856605169
 31
0.0
  0
LINE
  5
92
  8
DIMNSIONS
  6
CONTINUOUS
 62
     7
 10
-204.50000000000031
 20
-225.0
 30
0.0
 11
-222.0043579101565
 21
-220.3097214339484
 31
0.0
  0
TEXT
  5
93
  8
DIMNSIONS
 62
     7
 10
-274.69444444444468
 20
-219.04277777777779
 30
0.0
 40
19.003146701388879
  1
91.0
 41
0.7
 11
-274.69444444444468
 21
-200.0396310763889
 31
0.0
 73
     3
  0
LINE
  5
94
  8
DIMNSIONS
  6
CONTINUOUS
 62
     7
 10
-292.0000000000004
 20
-29.348687614705678
 30
0.0
 11
-292.0000000000004
 21
14.0
 31
0.0
  0
LINE
  5
95
  8
DIMNSIONS
  6
CONTINUOUS
 62
     7
 10
-208.0000000000004
 20
-29.348687614705678
 30
0.0
 11
-208.0000000000004
 21
14.0
 31
0.0
  0
LINE
  5
96
  8
DIMNSIONS
  6
CONTINUOUS
 62
     7
 10
-292.0000000000004
 20
0.0
 30
0.0
 11
-208.0000000000004
 21
0.0
 31
0.0
  0
LINE
  5
97
  8
DIMNSIONS
  6
CONTINUOUS
 62
     7
 10
-292.0000000000004
 20
0.0
 30
0.0
 11
-274.49564208984413
 21
4.6902785660516999
 31
0.0
  0
LINE
  5
98
  8
DIMNSIONS
  6
CONTINUOUS
 62
     7
 10
-292.0000000000004
 20
0.0
 30
0.0
 11
-274.49564208984413
 21
-4.6902785660516999
 31
0.0
  0
LINE
  5
99
  8
DIMNSIONS
  6
CONTINUOUS
 62
     7
 10
-208.0000000000004
 20
0.0
 30
0.0
 11
-225.5043579101565
 21
-4.6902785660517052
 31
0.0
  0
LINE
  5
9A
  8
DIMNSIONS
  6
CONTINUOUS
 62
     7
 10
-208.0000000000004
 20
0.0
 30
0.0
 11
-225.5043579101565
 21
4.6902785660516999
 31
0.0
  0
TEXT
  5
9B
  8
DIMNSIONS
 62
     7
 10
-274.6944444444448
 20
5.9572222222222244
 30
0.0
 40
19.003146701388879
  1
84.0
 41
0.7
 11
-274.6944444444448
 21
24.96036892361111
 31
0.0
 73
     3
  0
LINE
  5
9C
  8
DIMNSIONS
  6
CONTINUOUS
 62
     7
 10
-279.40000000003772
 20
-175.0
 30
0.0
 11
-389.0
 21
-175.0
 31
0.0
  0
LINE
  5
9D
  8
DIMNSIONS
  6
CONTINUOUS
 62
     7
 10
-279.40000000003772
 20
-32.999999999999829
 30
0.0
 11
-389.0
 21
-32.999999999999829
 31
0.0
  0
LINE
  5
9E
  8
DIMNSIONS
  6
CONTINUOUS
 62
     7
 10
-375.0
 20
-175.0
 30
0.0
 11
-375.0
 21
-32.999999999999829
 31
0.0
  0
LINE
  5
9F
  8
DIMNSIONS
  6
CONTINUOUS
 62
     7
 10
-375.0
 20
-175.0
 30
0.0
 11
-379.69027856605169
 21
-157.4956420898437
 31
0.0
  0
LINE
  5
A0
  8
DIMNSIONS
  6
CONTINUOUS
 62
     7
 10
-375.0
 20
-175.0
 30
0.0
 11
-370.30972143394831
 21
-157.4956420898437
 31
0.0
  0
LINE
  5
A1
  8
DIMNSIONS
  6
CONTINUOUS
 62
     7
 10
-375.0
 20
-32.999999999999829
 30
0.0
 11
-370.30972143394831
 21
-50.504357910156081
 31
0.0
  0
LINE
  5
A2
  8
DIMNSIONS
  6
CONTINUOUS
 62
     7
 10
-375.0
 20
-32.999999999999829
 30
0.0
 11
-379.69027856605169
 21
-50.504357910156081
 31
0.0
  0
TEXT
  5
A3
  8
DIMNSIONS
 62
     7
 10
-380.9572222222223
 20
-122.5208333333332
 30
0.0
 40
19.003146701388879
  1
142
 50
90.0
 41
0.7
 11
-399.96036892361121
 21
-122.5208333333332
 31
0.0
 73
     3
  0
LINE
  5
A4
  8
DIMNSIONS
  6
CONTINUOUS
 62
     7
 10
-297.4999999999996
 20
-600.99999999999977
 30
0.0
 11
-389.0
 21
-600.99999999999977
 31
0.0
  0
LINE
  5
A5
  8
DIMNSIONS
  6
CONTINUOUS
 62
     7
 10
-263.9975477328324
 20
-265.00000000000119
 30
0.0
 11
-389.0
 21
-265.00000000000119
 31
0.0
  0
LINE
  5
A6
  8
DIMNSIONS
  6
CONTINUOUS
 62
     7
 10
-375.0
 20
-600.99999999999977
 30
0.0
 11
-375.0
 21
-265.00000000000119
 31
0.0
  0
LINE
  5
A7
  8
DIMNSIONS
  6
CONTINUOUS
 62
     7
 10
-375.0
 20
-600.99999999999977
 30
0.0
 11
-379.69027856605169
 21
-583.49564208984361
 31
0.0
  0
LINE
  5
A8
  8
DIMNSIONS
  6
CONTINUOUS
 62
     7
 10
-375.0
 20
-600.99999999999977
 30
0.0
 11
-370.30972143394831
 21
-583.49564208984361
 31
0.0
  0
LINE
  5
A9
  8
DIMNSIONS
  6
CONTINUOUS
 62
     7
 10
-375.0
 20
-265.00000000000119
 30
0.0
 11
-370.30972143394831
 21
-282.50435791015752
 31
0.0
  0
LINE
  5
AA
  8
DIMNSIONS
  6
CONTINUOUS
 62
     7
 10
-375.0
 20
-265.00000000000119
 30
0.0
 11
-379.69027856605169
 21
-282.50435791015752
 31
0.0
  0
TEXT
  5
AB
  8
DIMNSIONS
 62
     7
 10
-380.9572222222223
 20
-451.52083333333383
 30
0.0
 40
19.003146701388879
  1
336
 50
90.0
 41
0.7
 11
-399.96036892361121
 21
-451.52083333333383
 31
0.0
 73
     3
  0
TEXT
  5
AC
  8
DATA
 62
     7
 10
349.99999999999977
 20
-810.89287999999965
 30
0.0
 40
17.102832031249999
  1
CGN321 STS
 41
0.7
 11
349.99999999999977
 21
-793.79004796874972
 31
0.0
 73
     3
  0
TEXT
  5
AD
  8
DATA
 62
     7
 10
349.99999999999977
 20
-760.14287999999976
 30
0.0
 40
17.102832031249999
  1
AKG
 41
0.7
 11
349.99999999999977
 21
-743.04004796874972
 31
0.0
 73
     3
  0
TEXT
  5
AE
  8
DATA
 62
     7
 10
337.5
 20
-784.48157340000012
 30
0.0
 40
11.401905976562499
  1
グーズネック・マイクロホン
 41
0.7
 11
337.5
 21
-773.07966742343763
 31
0.0
 73
     3
  0
TEXT
  5
AF
  8
DATA
 62
     7
 10
-612.49999999999989
 20
-833.67516555555562
 30
0.0
 40
13.302202690972219
  1
※仕様及び外観は予告なく変更されることがあります。
 41
0.7
 11
-612.49999999999989
 21
-820.37296286458331
 31
0.0
 73
     3
  0
TEXT
  5
B0
  8
DATA
 62
     7
 10
-612.49999999999989
 20
-850.96127666666644
 30
0.0
 40
13.302202690972219
  1
　また、同一商品でも若干の個体差があることがあります。ご了承ください。
 41
0.7
 11
-612.49999999999989
 21
-837.65907397569424
 31
0.0
 73
     3
  0
LINE
  5
B1
  8
DATA
  6
CONTINUOUS
 62
     7
 10
-235.50000000000031
 20
-175.0
 30
0.0
 11
-264.5
 21
-175.0
 31
0.0
  0
ARC
  5
B2
  8
DATA
  6
CONTINUOUS
 62
     7
 10
-250.00000000000031
 20
-490.57541703474271
 30
0.0
 40
457.57541703474288
 50
90.000000000000028
 51
94.099936026049207
  0
ARC
  5
B3
  8
DATA
  6
CONTINUOUS
 62
     7
 10
-281.9999999999996
 20
-44.145406916892391
 30
0.0
 40
10.000000000000011
 50
94.099936026049178
 51
180.0
  0
ARC
  5
B4
  8
DATA
  6
CONTINUOUS
 62
     7
 10
-259.25
 20
-86.750000000000043
 30
0.0
 40
88.406023550434554
 50
260.72413480766909
 51
266.5954817005113
  0
ARC
  5
B5
  8
DATA
  6
CONTINUOUS
 62
     7
 10
-270.38153750269407
 20
-148.5701270864767
 30
0.0
 40
28.31876352534972
 50
214.38115370759539
 51
228.78780269440571
  0
ARC
  5
B6
  8
DATA
  6
CONTINUOUS
 62
     7
 10
-282.45084792032151
 20
-162.35086883504141
 30
0.0
 40
9.9999999999999982
 50
228.7878026944054
 51
256.23011294207453
  0
ARC
  5
B7
  8
DATA
  6
CONTINUOUS
 62
     7
 10
-265.56249999999989
 20
-93.437500000000057
 30
0.0
 40
80.952580641385282
 50
256.23011294207521
 51
264.37303742542912
  0
ARC
  5
B8
  8
DATA
  6
CONTINUOUS
 62
     7
 10
-281.49836776253102
 20
-157.78548110893311
 30
0.0
 40
14.00327546211769
 50
180.87775948607981
 51
208.94015381583301
  0
ARC
  5
B9
  8
DATA
  6
CONTINUOUS
 62
     7
 10
-1522.457539450623
 20
-79.578638223260569
 30
0.0
 40
1229.461147656828
 50
356.34289748763041
 51
0.1388116787327931
  0
LINE
  5
BA
  8
DATA
  6
CONTINUOUS
 62
     7
 10
-292.99999999999972
 20
-76.5
 30
0.0
 11
-291.99999999999972
 21
-43.999999999999943
 31
0.0
  0
LINE
  5
BB
  8
DATA
  6
CONTINUOUS
 62
     7
 10
-249.00000000000011
 20
-32.999999999999829
 30
0.0
 11
-250.00000000000031
 21
-32.999999999999829
 31
0.0
  0
ARC
  5
BC
  8
DATA
  6
CONTINUOUS
 62
     7
 10
-250.00000000000031
 20
-490.57541703474271
 30
0.0
 40
457.57541703474283
 50
85.900063973950694
 51
89.999999999999986
  0
ARC
  5
BD
  8
DATA
  6
CONTINUOUS
 62
     7
 10
-218.00000000000031
 20
-44.145406916892391
 30
0.0
 40
9.9999999999999432
 50
0.0
 51
85.900063973951163
  0
ARC
  5
BE
  8
DATA
  6
CONTINUOUS
 62
     7
 10
-240.7500000000004
 20
-86.750000000000043
 30
0.0
 40
88.406023550434554
 50
273.40451829948881
 51
279.27586519233108
  0
ARC
  5
BF
  8
DATA
  6
CONTINUOUS
 62
     7
 10
-229.61846249730601
 20
-148.5701270864767
 30
0.0
 40
28.31876352534989
 50
311.21219730559483
 51
325.61884629240478
  0
ARC
  5
C0
  8
DATA
  6
CONTINUOUS
 62
     7
 10
-217.54915207967841
 20
-162.35086883504141
 30
0.0
 40
10.00000000000002
 50
283.76988705792547
 51
311.21219730559483
  0
ARC
  5
C1
  8
DATA
  6
CONTINUOUS
 62
     7
 10
-234.4375000000004
 20
-93.437500000000057
 30
0.0
 40
80.952580641385325
 50
275.62696257457111
 51
283.76988705792508
  0
ARC
  5
C2
  8
DATA
  6
CONTINUOUS
 62
     7
 10
-218.50163223746881
 20
-157.78548110893311
 30
0.0
 40
14.003275462117511
 50
331.05984618416682
 51
359.12224051392008
  0
ARC
  5
C3
  8
DATA
  6
CONTINUOUS
 62
     7
 10
1022.457539450646
 20
-79.578638223260569
 30
0.0
 40
1229.4611476568521
 50
179.86118832126721
 51
183.65710251236959
  0
LINE
  5
C4
  8
DATA
  6
CONTINUOUS
 62
     7
 10
-207.0000000000002
 20
-76.5
 30
0.0
 11
-208.00000000000031
 21
-43.999999999999943
 31
0.0
  0
LINE
  5
C5
  8
DATA
  6
CONTINUOUS
 62
     7
 10
-251.0000000000002
 20
-32.999999999999829
 30
0.0
 11
-250.00000000000011
 21
-32.999999999999829
 31
0.0
  0
LINE
  5
C6
  8
DATA
  6
CONTINUOUS
 62
     7
 10
-263.5
 20
-94.277318716632934
 30
0.0
 11
-263.5
 21
-57.777318716632827
 31
0.0
  0
LINE
  5
C7
  8
DATA
  6
CONTINUOUS
 62
     7
 10
-236.5000000000004
 20
-94.277318716632934
 30
0.0
 11
-263.5
 21
-94.277318716632934
 31
0.0
  0
LINE
  5
C8
  8
DATA
  6
CONTINUOUS
 62
     7
 10
-236.5000000000004
 20
-57.777318716632827
 30
0.0
 11
-236.5000000000004
 21
-94.277318716632934
 31
0.0
  0
LINE
  5
C9
  8
DATA
  6
CONTINUOUS
 62
     7
 10
-263.5
 20
-57.777318716632827
 30
0.0
 11
-236.5000000000004
 21
-57.777318716632827
 31
0.0
  0
POLYLINE
  5
CA
  8
DATA
  6
CONTINUOUS
 62
     7
 66
     1
 10
0.0
 20
0.0
 30
0.0
 70
   129
  0
VERTEX
  5
5EE
  8
DATA
  6
CONTINUOUS
 62
     7
 10
-260.32999999999998
 20
-62.947318716632822
 30
0.0
 42
-0.4142135623730951
  0
VERTEX
  5
5EF
  8
DATA
  6
CONTINUOUS
 62
     7
 10
-258.32999999999998
 20
-60.947318716632822
 30
0.0
 42
-0.4142135623730951
  0
VERTEX
  5
5F0
  8
DATA
  6
CONTINUOUS
 62
     7
 10
-256.32999999999998
 20
-62.947318716632822
 30
0.0
 42
-0.4142135623730951
  0
VERTEX
  5
5F1
  8
DATA
  6
CONTINUOUS
 62
     7
 10
-258.32999999999998
 20
-64.947318716632822
 30
0.0
 42
-0.4142135623730951
  0
VERTEX
  5
5F2
  8
DATA
  6
CONTINUOUS
 62
     7
 10
-260.32999999999998
 20
-62.947318716632822
 30
0.0
  0
SEQEND
  5
5F3
  8
DATA
  6
CONTINUOUS
 62
     7
  0
POLYLINE
  5
D1
  8
DATA
  6
CONTINUOUS
 62
     7
 66
     1
 10
0.0
 20
0.0
 30
0.0
 70
   129
  0
VERTEX
  5
5F4
  8
DATA
  6
CONTINUOUS
 62
     7
 10
-243.67000000000041
 20
-89.107318716632847
 30
0.0
 42
-0.414213562373091
  0
VERTEX
  5
5F5
  8
DATA
  6
CONTINUOUS
 62
     7
 10
-241.67000000000041
 20
-87.107318716632861
 30
0.0
 42
-0.4142135623730951
  0
VERTEX
  5
5F6
  8
DATA
  6
CONTINUOUS
 62
     7
 10
-239.67000000000041
 20
-89.107318716632847
 30
0.0
 42
-0.4142135623730992
  0
VERTEX
  5
5F7
  8
DATA
  6
CONTINUOUS
 62
     7
 10
-241.67000000000041
 20
-91.107318716632875
 30
0.0
 42
-0.4142135623730951
  0
VERTEX
  5
5F8
  8
DATA
  6
CONTINUOUS
 62
     7
 10
-243.67000000000041
 20
-89.107318716632847
 30
0.0
  0
SEQEND
  5
5F9
  8
DATA
  6
CONTINUOUS
 62
     7
  0
POLYLINE
  5
D8
  8
DATA
  6
CONTINUOUS
 62
     7
 66
     1
 10
0.0
 20
0.0
 30
0.0
 70
   129
  0
VERTEX
  5
5FA
  8
DATA
  6
CONTINUOUS
 62
     7
 10
-261.18000000000001
 20
-62.947318716632822
 30
0.0
 42
-0.4142135623730951
  0
VERTEX
  5
5FB
  8
DATA
  6
CONTINUOUS
 62
     7
 10
-258.32999999999998
 20
-60.097318716632792
 30
0.0
 42
-0.4142135623730951
  0
VERTEX
  5
5FC
  8
DATA
  6
CONTINUOUS
 62
     7
 10
-255.4799999999999
 20
-62.947318716632822
 30
0.0
 42
-0.4142135623730951
  0
VERTEX
  5
5FD
  8
DATA
  6
CONTINUOUS
 62
     7
 10
-258.32999999999998
 20
-65.797318716632859
 30
0.0
 42
-0.4142135623730951
  0
VERTEX
  5
5FE
  8
DATA
  6
CONTINUOUS
 62
     7
 10
-261.18000000000001
 20
-62.947318716632822
 30
0.0
  0
SEQEND
  5
5FF
  8
DATA
  6
CONTINUOUS
 62
     7
  0
POLYLINE
  5
DF
  8
DATA
  6
CONTINUOUS
 62
     7
 66
     1
 10
0.0
 20
0.0
 30
0.0
 70
   129
  0
VERTEX
  5
600
  8
DATA
  6
CONTINUOUS
 62
     7
 10
-244.52000000000041
 20
-89.107318716632847
 30
0.0
 42
-0.4142135623730951
  0
VERTEX
  5
601
  8
DATA
  6
CONTINUOUS
 62
     7
 10
-241.67000000000041
 20
-86.257318716632895
 30
0.0
 42
-0.4142135623730951
  0
VERTEX
  5
602
  8
DATA
  6
CONTINUOUS
 62
     7
 10
-238.82000000000039
 20
-89.107318716632847
 30
0.0
 42
-0.4142135623730951
  0
VERTEX
  5
603
  8
DATA
  6
CONTINUOUS
 62
     7
 10
-241.67000000000041
 20
-91.957318716632884
 30
0.0
 42
-0.4142135623730951
  0
VERTEX
  5
604
  8
DATA
  6
CONTINUOUS
 62
     7
 10
-244.52000000000041
 20
-89.107318716632847
 30
0.0
  0
SEQEND
  5
605
  8
DATA
  6
CONTINUOUS
 62
     7
  0
LINE
  5
E6
  8
DATA
  6
CONTINUOUS
 62
     7
 10
-259.3300000000001
 20
-62.94731871663285
 30
0.0
 11
-257.3300000000001
 21
-62.94731871663285
 31
0.0
  0
LINE
  5
E7
  8
DATA
  6
CONTINUOUS
 62
     7
 10
-258.32999999999998
 20
-63.94731871663285
 30
0.0
 11
-258.32999999999998
 21
-61.947318716632822
 31
0.0
  0
LINE
  5
E8
  8
DATA
  6
CONTINUOUS
 62
     7
 10
-242.67000000000041
 20
-89.107318716632903
 30
0.0
 11
-240.67000000000041
 21
-89.107318716632903
 31
0.0
  0
LINE
  5
E9
  8
DATA
  6
CONTINUOUS
 62
     7
 10
-241.67000000000041
 20
-90.107318716632903
 30
0.0
 11
-241.67000000000041
 21
-88.107318716632861
 31
0.0
  0
LINE
  5
EA
  8
DATA
  6
CONTINUOUS
 62
     7
 10
-264.5
 20
-95.527318716632934
 30
0.0
 11
-264.5
 21
-56.527318716632813
 31
0.0
  0
LINE
  5
EB
  8
DATA
  6
CONTINUOUS
 62
     7
 10
-235.50000000000031
 20
-95.527318716632934
 30
0.0
 11
-264.5
 21
-95.527318716632934
 31
0.0
  0
LINE
  5
EC
  8
DATA
  6
CONTINUOUS
 62
     7
 10
-235.50000000000031
 20
-56.527318716632813
 30
0.0
 11
-235.50000000000031
 21
-95.527318716632934
 31
0.0
  0
LINE
  5
ED
  8
DATA
  6
CONTINUOUS
 62
     7
 10
-264.5
 20
-56.527318716632813
 30
0.0
 11
-235.50000000000031
 21
-56.527318716632813
 31
0.0
  0
ARC
  5
EE
  8
DATA
  6
CONTINUOUS
 62
     7
 10
-246.82702020202041
 20
36.017676767679653
 30
0.0
 40
203.20284854972431
 50
263.06852040815579
 51
267.55379346094998
  0
ARC
  5
EF
  8
DATA
  6
CONTINUOUS
 62
     7
 10
-144.07617262078639
 20
-151.4685172847351
 30
0.0
 40
131.1467322585643
 50
171.32297580072739
 51
184.6317138347849
  0
ARC
  5
F0
  8
DATA
  6
CONTINUOUS
 62
     7
 10
-209.35000000000011
 20
-142.1538461538463
 30
0.0
 40
65.177639035005541
 50
156.2995322310056
 51
170.85951084501519
  0
ARC
  5
F1
  8
DATA
  6
CONTINUOUS
 62
     7
 10
-254.3332044580759
 20
-125.13082483491409
 30
0.0
 40
17.32628514884016
 50
98.853943391762144
 51
148.0236243761386
  0
ARC
  5
F2
  8
DATA
  6
CONTINUOUS
 62
     7
 10
-270.80768621940439
 20
-161.73569727898661
 30
0.0
 40
3.9999999999999072
 50
184.63171383478601
 51
260.66010789762453
  0
ARC
  5
F3
  8
DATA
  6
CONTINUOUS
 62
     7
 10
-267.48882978723373
 20
-141.55675531914821
 30
0.0
 40
24.450049061943151
 50
260.66010789762419
 51
260.91377002929562
  0
ARC
  5
F4
  8
DATA
  6
CONTINUOUS
 62
     7
 10
-253.1729797979801
 20
36.017676767679653
 30
0.0
 40
203.20284854972439
 50
272.44620653905002
 51
276.93147959184438
  0
ARC
  5
F5
  8
DATA
  6
CONTINUOUS
 62
     7
 10
-355.92382737921389
 20
-151.4685172847351
 30
0.0
 40
131.14673225856461
 50
355.36828616521512
 51
8.6770241992725818
  0
ARC
  5
F6
  8
DATA
  6
CONTINUOUS
 62
     7
 10
-290.64999999999958
 20
-142.1538461538463
 30
0.0
 40
65.177639035005214
 50
9.1404891549847296
 51
23.70046776899451
  0
ARC
  5
F7
  8
DATA
  6
CONTINUOUS
 62
     7
 10
-245.66679554192439
 20
-125.13082483491409
 30
0.0
 40
17.3262851488401
 50
31.976375623860921
 51
81.14605660823787
  0
ARC
  5
F8
  8
DATA
  6
CONTINUOUS
 62
     7
 10
-229.19231378059561
 20
-161.73569727898661
 30
0.0
 40
4.0000000000000009
 50
279.3398921023761
 51
355.36828616521422
  0
ARC
  5
F9
  8
DATA
  6
CONTINUOUS
 62
     7
 10
-232.51117021276639
 20
-141.55675531914821
 30
0.0
 40
24.45004906194319
 50
279.08622997070472
 51
279.3398921023761
  0
ARC
  5
FA
  8
DATA
  6
CONTINUOUS
 62
     7
 10
-250.23873829375151
 20
-97.055090858189743
 30
0.0
 40
70.142506296807923
 50
265.69830771793829
 51
274.69161316599741
  0
LINE
  5
FB
  8
DATA
  6
CONTINUOUS
 62
     7
 10
-257.0
 20
-108.0110012786828
 30
0.0
 11
-243.0000000000004
 21
-108.0110012786828
 31
0.0
  0
TEXT
  5
FC
  8
DATA
 62
     7
 10
-254.05400462962959
 20
-124.9040224013492
 30
0.0
 40
4.3435763888888879
  1
AKG
 41
0.7
 72
     1
 11
-250.0
 21
-122.73223420690481
 31
0.0
 73
     2
  0
TEXT
  5
FD
  8
DATA
 62
     7
 10
-259.50157335069451
 20
-130.50590438555349
 30
0.0
 40
3.2576822916666659
  1
CGN321STS
 41
0.7
 72
     1
 11
-250.0
 21
-128.8770632397202
 31
0.0
 73
     2
  0
ARC
  5
FE
  8
DATA
  6
CONTINUOUS
 62
     7
 10
-1019.200816981074
 20
-33.947487411077589
 30
0.0
 40
746.700920910587
 50
355.31008935921409
 51
0.0302296930815373
  0
ARC
  5
FF
  8
DATA
  6
CONTINUOUS
 62
     7
 10
163.04500580378161
 20
-142.6927590209506
 30
0.0
 40
440.63366459301
 50
173.78631768462981
 51
184.0284144171311
  0
ARC
  5
100
  8
DATA
  6
CONTINUOUS
 62
     7
 10
519.20081698106117
 20
-33.947487411077589
 30
0.0
 40
746.70092091057415
 50
179.96977030691849
 51
184.689910640786
  0
ARC
  5
101
  8
DATA
  6
CONTINUOUS
 62
     7
 10
-663.04500580378249
 20
-142.6927590209506
 30
0.0
 40
440.63366459301091
 50
355.97158558286878
 51
6.2136823153701934
  0
LINE
  5
102
  8
DATA
  6
CONTINUOUS
 62
     7
 10
237.21000668254399
 20
-175.0
 30
0.0
 11
250.0
 21
-175.0
 31
0.0
  0
LINE
  5
103
  8
DATA
  6
CONTINUOUS
 62
     7
 10
220.24200165812061
 20
-32.999999999999829
 30
0.0
 11
250.0
 21
-32.999999999999829
 31
0.0
  0
LINE
  5
104
  8
DATA
  6
CONTINUOUS
 62
     7
 10
250.0
 20
-175.0
 30
0.0
 11
250.0
 21
-32.999999999999901
 31
0.0
  0
LINE
  5
105
  8
DATA
  6
CONTINUOUS
 62
     7
 10
209.0000000000002
 20
-95.527318716632934
 30
0.0
 11
209.0000000000002
 21
-56.527318716632813
 31
0.0
  0
LINE
  5
106
  8
DATA
  6
CONTINUOUS
 62
     7
 10
-266.3706825756733
 20
359.0
 30
0.0
 11
-235.50000000000031
 21
359.0
 31
0.0
  0
LINE
  5
107
  8
DATA
  6
CONTINUOUS
 62
     7
 10
-295.4975477328324
 20
400.0
 30
0.0
 11
-204.50245226716771
 21
400.0
 31
0.0
  0
LINE
  5
108
  8
DATA
  6
CONTINUOUS
 62
     7
 10
-295.4975477328324
 20
372.97688222293692
 30
0.0
 11
-295.4975477328324
 21
400.0
 31
0.0
  0
LINE
  5
109
  8
DATA
  6
CONTINUOUS
 62
     7
 10
-204.5024522671676
 20
372.97688222293692
 30
0.0
 11
-204.5024522671676
 21
400.0
 31
0.0
  0
LINE
  5
10A
  8
DATA
  6
CONTINUOUS
 62
     7
 10
-289.99999999999972
 20
382.0
 30
0.0
 11
-289.99999999999972
 21
400.0
 31
0.0
  0
LINE
  5
10B
  8
DATA
  6
CONTINUOUS
 62
     7
 10
-210.00000000000031
 20
400.0
 30
0.0
 11
-210.00000000000031
 21
382.0
 31
0.0
  0
LINE
  5
10C
  8
DATA
  6
CONTINUOUS
 62
     7
 10
-295.4975477328324
 20
382.0
 30
0.0
 11
-274.49999999999972
 21
382.0
 31
0.0
  0
LINE
  5
10D
  8
DATA
  6
CONTINUOUS
 62
     7
 10
-274.49999999999972
 20
382.0
 30
0.0
 11
-271.779879122907
 21
382.0
 31
0.0
  0
LINE
  5
10E
  8
DATA
  6
CONTINUOUS
 62
     7
 10
-225.5000000000004
 20
382.0
 30
0.0
 11
-204.5024522671676
 21
382.0
 31
0.0
  0
LINE
  5
10F
  8
DATA
  6
CONTINUOUS
 62
     7
 10
-228.220120877093
 20
382.0
 30
0.0
 11
-225.5000000000004
 21
382.0
 31
0.0
  0
POLYLINE
  5
110
  8
DATA
  6
CONTINUOUS
 62
     7
 66
     1
 10
0.0
 20
0.0
 30
0.0
 70
   129
  0
VERTEX
  5
606
  8
DATA
  6
CONTINUOUS
 62
     7
 10
-255.52297981737661
 20
386.29894706060952
 30
0.0
 42
-0.4142135623730951
  0
VERTEX
  5
607
  8
DATA
  6
CONTINUOUS
 62
     7
 10
-254.02297981737661
 20
387.79894706060952
 30
0.0
 42
-0.4142135623730951
  0
VERTEX
  5
608
  8
DATA
  6
CONTINUOUS
 62
     7
 10
-252.52297981737661
 20
386.29894706060952
 30
0.0
 42
-0.4142135623730951
  0
VERTEX
  5
609
  8
DATA
  6
CONTINUOUS
 62
     7
 10
-254.02297981737661
 20
384.79894706060952
 30
0.0
 42
-0.4142135623730951
  0
VERTEX
  5
60A
  8
DATA
  6
CONTINUOUS
 62
     7
 10
-255.52297981737661
 20
386.29894706060952
 30
0.0
  0
SEQEND
  5
60B
  8
DATA
  6
CONTINUOUS
 62
     7
  0
POLYLINE
  5
117
  8
DATA
  6
CONTINUOUS
 62
     7
 66
     1
 10
0.0
 20
0.0
 30
0.0
 70
   129
  0
VERTEX
  5
60C
  8
DATA
  6
CONTINUOUS
 62
     7
 10
-247.52297981737681
 20
386.29894706060952
 30
0.0
 42
-0.4142135623730951
  0
VERTEX
  5
60D
  8
DATA
  6
CONTINUOUS
 62
     7
 10
-246.02297981737689
 20
387.79894706060952
 30
0.0
 42
-0.4142135623730951
  0
VERTEX
  5
60E
  8
DATA
  6
CONTINUOUS
 62
     7
 10
-244.52297981737689
 20
386.29894706060952
 30
0.0
 42
-0.4142135623730951
  0
VERTEX
  5
60F
  8
DATA
  6
CONTINUOUS
 62
     7
 10
-246.02297981737689
 20
384.79894706060952
 30
0.0
 42
-0.4142135623730951
  0
VERTEX
  5
610
  8
DATA
  6
CONTINUOUS
 62
     7
 10
-247.52297981737681
 20
386.29894706060952
 30
0.0
  0
SEQEND
  5
611
  8
DATA
  6
CONTINUOUS
 62
     7
  0
POLYLINE
  5
11E
  8
DATA
  6
CONTINUOUS
 62
     7
 66
     1
 10
0.0
 20
0.0
 30
0.0
 70
   129
  0
VERTEX
  5
612
  8
DATA
  6
CONTINUOUS
 62
     7
 10
-251.52297981737669
 20
381.29894706060952
 30
0.0
 42
-0.4142135623730951
  0
VERTEX
  5
613
  8
DATA
  6
CONTINUOUS
 62
     7
 10
-250.02297981737669
 20
382.79894706060952
 30
0.0
 42
-0.4142135623730951
  0
VERTEX
  5
614
  8
DATA
  6
CONTINUOUS
 62
     7
 10
-248.52297981737669
 20
381.29894706060952
 30
0.0
 42
-0.4142135623730951
  0
VERTEX
  5
615
  8
DATA
  6
CONTINUOUS
 62
     7
 10
-250.02297981737669
 20
379.79894706060952
 30
0.0
 42
-0.4142135623730951
  0
VERTEX
  5
616
  8
DATA
  6
CONTINUOUS
 62
     7
 10
-251.52297981737669
 20
381.29894706060952
 30
0.0
  0
SEQEND
  5
617
  8
DATA
  6
CONTINUOUS
 62
     7
  0
POLYLINE
  5
125
  8
DATA
  6
CONTINUOUS
 62
     7
 66
     1
 10
0.0
 20
0.0
 30
0.0
 70
   129
  0
VERTEX
  5
618
  8
DATA
  6
CONTINUOUS
 62
     7
 10
-260.02297981737661
 20
375.95810772104443
 30
0.0
 42
-0.4142135623730951
  0
VERTEX
  5
619
  8
DATA
  6
CONTINUOUS
 62
     7
 10
-258.02297981737661
 20
377.95810772104443
 30
0.0
 42
-0.4142135623730951
  0
VERTEX
  5
61A
  8
DATA
  6
CONTINUOUS
 62
     7
 10
-256.02297981737661
 20
375.95810772104443
 30
0.0
 42
-0.4142135623730951
  0
VERTEX
  5
61B
  8
DATA
  6
CONTINUOUS
 62
     7
 10
-258.02297981737661
 20
373.95810772104443
 30
0.0
 42
-0.4142135623730951
  0
VERTEX
  5
61C
  8
DATA
  6
CONTINUOUS
 62
     7
 10
-260.02297981737661
 20
375.95810772104443
 30
0.0
  0
SEQEND
  5
61D
  8
DATA
  6
CONTINUOUS
 62
     7
  0
POLYLINE
  5
12C
  8
DATA
  6
CONTINUOUS
 62
     7
 66
     1
 10
0.0
 20
0.0
 30
0.0
 70
   129
  0
VERTEX
  5
61E
  8
DATA
  6
CONTINUOUS
 62
     7
 10
-244.02297981737689
 20
393.95810772104443
 30
0.0
 42
-0.4142135623730951
  0
VERTEX
  5
61F
  8
DATA
  6
CONTINUOUS
 62
     7
 10
-242.02297981737701
 20
395.95810772104443
 30
0.0
 42
-0.4142135623730825
  0
VERTEX
  5
620
  8
DATA
  6
CONTINUOUS
 62
     7
 10
-240.02297981737701
 20
393.95810772104443
 30
0.0
 42
-0.4142135623730951
  0
VERTEX
  5
621
  8
DATA
  6
CONTINUOUS
 62
     7
 10
-242.02297981737701
 20
391.95810772104443
 30
0.0
 42
-0.414213562373091
  0
VERTEX
  5
622
  8
DATA
  6
CONTINUOUS
 62
     7
 10
-244.02297981737689
 20
393.95810772104443
 30
0.0
  0
SEQEND
  5
623
  8
DATA
  6
CONTINUOUS
 62
     7
  0
LINE
  5
133
  8
DATA
  6
CONTINUOUS
 62
     7
 10
-256.77297981737661
 20
375.95810772104431
 30
0.0
 11
-259.27297981737661
 21
375.95810772104431
 31
0.0
  0
LINE
  5
134
  8
DATA
  6
CONTINUOUS
 62
     7
 10
-258.02297981737661
 20
377.20810772104431
 30
0.0
 11
-258.02297981737661
 21
374.70810772104431
 31
0.0
  0
LINE
  5
135
  8
DATA
  6
CONTINUOUS
 62
     7
 10
-240.77297981737701
 20
393.95810772104443
 30
0.0
 11
-243.27297981737689
 21
393.95810772104443
 31
0.0
  0
LINE
  5
136
  8
DATA
  6
CONTINUOUS
 62
     7
 10
-242.02297981737701
 20
395.20810772104443
 30
0.0
 11
-242.02297981737701
 21
392.70810772104431
 31
0.0
  0
LINE
  5
137
  8
DATA
  6
CONTINUOUS
 62
     7
 10
-238.92297981737701
 20
394.95810772104443
 30
0.0
 11
-238.92297981737701
 21
374.95810772104431
 31
0.0
  0
LINE
  5
138
  8
DATA
  6
CONTINUOUS
 62
     7
 10
-259.12297981737657
 20
396.95810772104443
 30
0.0
 11
-240.92297981737701
 21
396.95810772104443
 31
0.0
  0
LINE
  5
139
  8
DATA
  6
CONTINUOUS
 62
     7
 10
-261.12297981737652
 20
374.95810772104431
 30
0.0
 11
-261.12297981737652
 21
394.95810772104443
 31
0.0
  0
LINE
  5
13A
  8
DATA
  6
CONTINUOUS
 62
     7
 10
-240.92297981737701
 20
372.95810772104431
 30
0.0
 11
-259.12297981737657
 21
372.95810772104431
 31
0.0
  0
ARC
  5
13B
  8
DATA
  6
CONTINUOUS
 62
     7
 10
-240.92297981737701
 20
374.95810772104431
 30
0.0
 40
2.0
 50
270.0
 51
0.0
  0
ARC
  5
13C
  8
DATA
  6
CONTINUOUS
 62
     7
 10
-240.92297981737701
 20
394.95810772104443
 30
0.0
 40
2.0
 50
0.0
 51
90.0
  0
ARC
  5
13D
  8
DATA
  6
CONTINUOUS
 62
     7
 10
-259.12297981737657
 20
394.95810772104443
 30
0.0
 40
2.0
 50
90.0
 51
180.0
  0
ARC
  5
13E
  8
DATA
  6
CONTINUOUS
 62
     7
 10
-259.12297981737657
 20
374.95810772104431
 30
0.0
 40
1.9999999999998861
 50
180.0
 51
270.0
  0
LINE
  5
13F
  8
DATA
  6
CONTINUOUS
 62
     7
 10
-273.49999999999972
 20
400.0
 30
0.0
 11
-273.49999999999972
 21
383.0
 31
0.0
  0
LINE
  5
140
  8
DATA
  6
CONTINUOUS
 62
     7
 10
-270.49999999999972
 20
400.0
 30
0.0
 11
-270.78001448738928
 21
382.98354671336858
 31
0.0
  0
LINE
  5
141
  8
DATA
  6
CONTINUOUS
 62
     7
 10
-226.5000000000004
 20
400.0
 30
0.0
 11
-226.5000000000004
 21
383.0
 31
0.0
  0
LINE
  5
142
  8
DATA
  6
CONTINUOUS
 62
     7
 10
-229.5000000000004
 20
400.0
 30
0.0
 11
-229.21998551261069
 21
382.98354671336858
 31
0.0
  0
LINE
  5
143
  8
DATA
  6
CONTINUOUS
 62
     7
 10
-283.4999999999996
 20
400.0
 30
0.0
 11
-283.4999999999996
 21
401.0
 31
0.0
  0
LINE
  5
144
  8
DATA
  6
CONTINUOUS
 62
     7
 10
-275.49999999999972
 20
401.0
 30
0.0
 11
-275.49999999999972
 21
400.0
 31
0.0
  0
LINE
  5
145
  8
DATA
  6
CONTINUOUS
 62
     7
 10
-283.4999999999996
 20
401.0
 30
0.0
 11
-275.49999999999972
 21
401.0
 31
0.0
  0
LINE
  5
146
  8
DATA
  6
CONTINUOUS
 62
     7
 10
-216.5000000000004
 20
400.0
 30
0.0
 11
-216.5000000000004
 21
401.0
 31
0.0
  0
LINE
  5
147
  8
DATA
  6
CONTINUOUS
 62
     7
 10
-224.50000000000031
 20
401.0
 30
0.0
 11
-224.50000000000031
 21
400.0
 31
0.0
  0
LINE
  5
148
  8
DATA
  6
CONTINUOUS
 62
     7
 10
-216.5000000000004
 20
401.0
 30
0.0
 11
-224.50000000000031
 21
401.0
 31
0.0
  0
CIRCLE
  5
149
  8
DATA
  6
CONTINUOUS
 62
     7
 10
-250.02297981737689
 20
384.95810772104443
 30
0.0
 40
8.0000028487245096
  0
LINE
  5
14A
  8
DATA
  6
CONTINUOUS
 62
     7
 10
-264.5
 20
359.0
 30
0.0
 11
-264.5
 21
361.64999999999998
 31
0.0
  0
LINE
  5
14B
  8
DATA
  6
CONTINUOUS
 62
     7
 10
-235.50000000000031
 20
359.0
 30
0.0
 11
-235.50000000000031
 21
361.5846723912
 31
0.0
  0
ARC
  5
14C
  8
DATA
  6
CONTINUOUS
 62
     7
 10
-290.49754773283229
 20
372.97688222293692
 30
0.0
 40
5.0000000000001128
 50
180.0
 51
241.92727185958279
  0
ARC
  5
14D
  8
DATA
  6
CONTINUOUS
 62
     7
 10
-188.21080578578909
 20
564.76257892412002
 30
0.0
 40
222.3576109486373
 50
241.9272718595839
 51
246.02575927091661
  0
LINE
  5
14E
  8
DATA
  6
CONTINUOUS
 62
     7
 10
-262.54481829110023
 20
366.0
 30
0.0
 11
-237.45518170890011
 21
366.0
 31
0.0
  0
LINE
  5
14F
  8
DATA
  6
CONTINUOUS
 62
     7
 10
-292.55900618856617
 20
369.8847372719959
 30
0.0
 11
-268.20660851369911
 21
366.40272570649228
 31
0.0
  0
ARC
  5
150
  8
DATA
  6
CONTINUOUS
 62
     7
 10
-262.54481829110023
 20
406.0
 30
0.0
 40
40.0
 50
261.86275554042709
 51
269.99999999999989
  0
ARC
  5
151
  8
DATA
  6
CONTINUOUS
 62
     7
 10
-292.20250865051872
 20
373.28538062283752
 30
0.0
 40
3.4192785341731282
 50
199.30459788682751
 51
264.01540637203908
  0
LINE
  5
152
  8
DATA
  6
CONTINUOUS
 62
     7
 10
-235.50000000000031
 20
359.0
 30
0.0
 11
-235.50000000000031
 21
361.64999999999998
 31
0.0
  0
LINE
  5
153
  8
DATA
  6
CONTINUOUS
 62
     7
 10
-264.49999999999989
 20
359.0
 30
0.0
 11
-264.49999999999989
 21
361.5846723912
 31
0.0
  0
ARC
  5
154
  8
DATA
  6
CONTINUOUS
 62
     7
 10
-209.50245226716771
 20
372.97688222293692
 30
0.0
 40
5.0000000000000444
 50
298.0727281404171
 51
0.0
  0
LINE
  5
155
  8
DATA
  6
CONTINUOUS
 62
     7
 10
-207.44099381143371
 20
369.8847372719959
 30
0.0
 11
-231.79339148630089
 21
366.40272570649228
 31
0.0
  0
ARC
  5
156
  8
DATA
  6
CONTINUOUS
 62
     7
 10
-250.210686469151
 20
455.14452504581629
 30
0.0
 40
94.64475954819919
 50
261.31636999467639
 51
274.85529585330403
  0
ARC
  5
157
  8
DATA
  6
CONTINUOUS
 62
     7
 10
-237.45518170890011
 20
406.0
 30
0.0
 40
40.0
 50
270.00000000000011
 51
278.1372444595732
  0
ARC
  5
158
  8
DATA
  6
CONTINUOUS
 62
     7
 10
-207.79749134948119
 20
373.28538062283752
 30
0.0
 40
3.4192785341730869
 50
275.98459362796092
 51
340.69540211317178
  0
ARC
  5
159
  8
DATA
  6
CONTINUOUS
 62
     7
 10
-266.3706825756733
 20
389.00000000000028
 30
0.0
 40
30.000000000000242
 50
246.02575927091689
 51
270.0
  0
ARC
  5
15A
  8
DATA
  6
CONTINUOUS
 62
     7
 10
-233.6293174243269
 20
389.00000000000028
 30
0.0
 40
30.000000000000341
 50
270.0
 51
293.97424072908382
  0
ARC
  5
15B
  8
DATA
  6
CONTINUOUS
 62
     7
 10
-311.78919421421102
 20
564.76257892412002
 30
0.0
 40
222.3576109486375
 50
293.97424072908359
 51
298.07272814041619
  0
LINE
  5
15C
  8
DATA
  6
CONTINUOUS
 62
     7
 10
-257.80000000000001
 20
360.80453972640402
 30
0.0
 11
-257.80000000000001
 21
360.83938514225957
 31
0.0
  0
LINE
  5
15D
  8
DATA
  6
CONTINUOUS
 62
     7
 10
209.0000000000002
 20
-56.527318716632813
 30
0.0
 11
209.8588147434138
 21
-56.527318716632813
 31
0.0
  0
LINE
  5
15E
  8
DATA
  6
CONTINUOUS
 62
     7
 10
209.00000000000011
 20
-95.527318716632934
 30
0.0
 11
210.32788511840991
 21
-95.527318716632934
 31
0.0
  0
ARC
  5
15F
  8
DATA
  6
CONTINUOUS
 62
     7
 10
493.3881118881136
 20
-54.475524475524431
 30
0.0
 40
286.02157574094031
 50
186.1263231479746
 51
204.27317231557601
  0
ARC
  5
160
  8
DATA
  6
CONTINUOUS
 62
     7
 10
220.24200165812061
 20
-40.999999999999851
 30
0.0
 40
8.0000000000000284
 50
90.0
 51
168.7632494358931
  0
ARC
  5
161
  8
DATA
  6
CONTINUOUS
 62
     7
 10
386.2703703703711
 20
-73.985185185185202
 30
0.0
 40
177.2732750878059
 50
168.76324943589319
 51
180.3279959905199
  0
ARC
  5
162
  8
DATA
  6
CONTINUOUS
 62
     7
 10
237.21000668254399
 20
-170.0
 30
0.0
 40
5.0000000000000009
 50
204.2731723155764
 51
270.0
  0
LINE
  5
163
  8
DATA
  6
CONTINUOUS
 62
     7
 10
251.0
 20
-159.0
 30
0.0
 11
251.0
 21
-151.00000000000011
 31
0.0
  0
LINE
  5
164
  8
DATA
  6
CONTINUOUS
 62
     7
 10
251.0
 20
-56.999999999999929
 30
0.0
 11
251.0
 21
-48.999999999999943
 31
0.0
  0
LINE
  5
165
  8
DATA
  6
CONTINUOUS
 62
     7
 10
250.0
 20
-48.999999999999943
 30
0.0
 11
251.0
 21
-48.999999999999943
 31
0.0
  0
LINE
  5
166
  8
DATA
  6
CONTINUOUS
 62
     7
 10
250.0
 20
-56.999999999999929
 30
0.0
 11
251.0
 21
-56.999999999999929
 31
0.0
  0
LINE
  5
167
  8
DATA
  6
CONTINUOUS
 62
     7
 10
250.0
 20
-151.00000000000011
 30
0.0
 11
251.0
 21
-151.00000000000011
 31
0.0
  0
LINE
  5
168
  8
DATA
  6
CONTINUOUS
 62
     7
 10
250.0
 20
-159.0
 30
0.0
 11
251.0
 21
-159.0
 31
0.0
  0
ARC
  5
169
  8
DATA
  6
CONTINUOUS
 62
     7
 10
646.87971718024278
 20
-27.68293583790626
 30
0.0
 40
414.71641616610123
 50
180.73460724184051
 51
196.86507361421269
  0
LINE
  5
16A
  8
DATA
  6
CONTINUOUS
 62
     7
 10
250.0
 20
-35.499999999999901
 30
0.0
 11
232.2369801818233
 21
-35.499999999999901
 31
0.0
  0
LINE
  5
16B
  8
DATA
  6
CONTINUOUS
 62
     7
 10
-266.3706825756733
 20
-559.00000000000125
 30
0.0
 11
-235.50000000000031
 21
-559.00000000000125
 31
0.0
  0
LINE
  5
16C
  8
DATA
  6
CONTINUOUS
 62
     7
 10
-295.4975477328324
 20
-600.0
 30
0.0
 11
-204.50245226716771
 21
-600.0
 31
0.0
  0
LINE
  5
16D
  8
DATA
  6
CONTINUOUS
 62
     7
 10
-295.4975477328324
 20
-572.97688222293823
 30
0.0
 11
-295.4975477328324
 21
-600.0
 31
0.0
  0
LINE
  5
16E
  8
DATA
  6
CONTINUOUS
 62
     7
 10
-204.5024522671676
 20
-572.97688222293823
 30
0.0
 11
-204.5024522671676
 21
-600.0
 31
0.0
  0
LINE
  5
16F
  8
DATA
  6
CONTINUOUS
 62
     7
 10
-283.4999999999996
 20
-600.0
 30
0.0
 11
-283.4999999999996
 21
-600.99999999999977
 31
0.0
  0
LINE
  5
170
  8
DATA
  6
CONTINUOUS
 62
     7
 10
-275.49999999999972
 20
-600.99999999999977
 30
0.0
 11
-275.49999999999972
 21
-600.0
 31
0.0
  0
LINE
  5
171
  8
DATA
  6
CONTINUOUS
 62
     7
 10
-283.4999999999996
 20
-600.99999999999977
 30
0.0
 11
-275.49999999999972
 21
-600.99999999999977
 31
0.0
  0
LINE
  5
172
  8
DATA
  6
CONTINUOUS
 62
     7
 10
-216.5000000000004
 20
-600.0
 30
0.0
 11
-216.5000000000004
 21
-600.99999999999977
 31
0.0
  0
LINE
  5
173
  8
DATA
  6
CONTINUOUS
 62
     7
 10
-224.50000000000031
 20
-600.99999999999977
 30
0.0
 11
-224.50000000000031
 21
-600.0
 31
0.0
  0
LINE
  5
174
  8
DATA
  6
CONTINUOUS
 62
     7
 10
-216.5000000000004
 20
-600.99999999999977
 30
0.0
 11
-224.50000000000031
 21
-600.99999999999977
 31
0.0
  0
ARC
  5
175
  8
DATA
  6
CONTINUOUS
 62
     7
 10
-290.49754773283229
 20
-572.97688222293823
 30
0.0
 40
4.9999999999999947
 50
118.0727281404175
 51
180.0
  0
ARC
  5
176
  8
DATA
  6
CONTINUOUS
 62
     7
 10
-188.21080578578909
 20
-764.76257892411411
 30
0.0
 40
222.35761094863079
 50
113.9742407290842
 51
118.072728140417
  0
LINE
  5
177
  8
DATA
  6
CONTINUOUS
 62
     7
 10
-233.6293174243269
 20
-559.00000000000125
 30
0.0
 11
-264.49999999999989
 21
-559.00000000000125
 31
0.0
  0
ARC
  5
178
  8
DATA
  6
CONTINUOUS
 62
     7
 10
-209.50245226716771
 20
-572.97688222293823
 30
0.0
 40
5.000000000000056
 50
0.0
 51
61.927271859582511
  0
ARC
  5
179
  8
DATA
  6
CONTINUOUS
 62
     7
 10
-266.3706825756733
 20
-589.00000000000114
 30
0.0
 40
29.99999999999989
 50
90.0
 51
113.9742407290835
  0
ARC
  5
17A
  8
DATA
  6
CONTINUOUS
 62
     7
 10
-233.6293174243269
 20
-589.00000000000114
 30
0.0
 40
29.999999999999972
 50
66.025759270915913
 51
90.0
  0
ARC
  5
17B
  8
DATA
  6
CONTINUOUS
 62
     7
 10
-311.78919421421102
 20
-764.76257892411411
 30
0.0
 40
222.35761094863099
 50
61.92727185958293
 51
66.025759270915756
  0
ARC
  5
17C
  8
DATA
  6
CONTINUOUS
 62
     7
 10
-248.51424114424501
 20
-817.24253143874489
 30
0.0
 40
233.5981865786965
 50
79.140103110718456
 51
83.383918106644316
  0
ARC
  5
17D
  8
DATA
  6
CONTINUOUS
 62
     7
 10
-238.0389572875136
 20
-774.21956928948225
 30
0.0
 40
189.7330674686651
 50
85.029515279983286
 51
89.316550727697873
  0
LINE
  5
17E
  8
DATA
  6
CONTINUOUS
 62
     7
 10
-235.77579143352591
 20
-584.50000000000068
 30
0.0
 11
-250.00000000000031
 21
-584.33031933264431
 31
0.0
  0
ARC
  5
17F
  8
DATA
  6
CONTINUOUS
 62
     7
 10
-251.48575885575559
 20
-817.24253143874489
 30
0.0
 40
233.59818657869641
 50
96.616081893355513
 51
100.8598968892814
  0
ARC
  5
180
  8
DATA
  6
CONTINUOUS
 62
     7
 10
-261.9610427124868
 20
-774.21956928948225
 30
0.0
 40
189.7330674686651
 50
90.683449272302127
 51
94.970484720016557
  0
LINE
  5
181
  8
DATA
  6
CONTINUOUS
 62
     7
 10
-264.22420856647432
 20
-584.50000000000068
 30
0.0
 11
-249.99999999999969
 21
-584.33031933264431
 31
0.0
  0
ARC
  5
182
  8
DATA
  6
CONTINUOUS
 62
     7
 10
-244.6004499441174
 20
408.77406395840592
 30
0.0
 40
47.99474547428423
 50
272.86683582915509
 51
280.93022726661758
  0
LINE
  5
183
  8
DATA
  6
CONTINUOUS
 62
     7
 10
-233.6293174243269
 20
359.0
 30
0.0
 11
-235.50000000000031
 21
359.0
 31
0.0
  0
ARC
  5
184
  8
DATA
  6
CONTINUOUS
 62
     7
 10
-246.82702020202041
 20
-379.3545833175167
 30
0.0
 40
203.20284854972439
 50
263.06852040815579
 51
267.55379346094998
  0
ARC
  5
185
  8
DATA
  6
CONTINUOUS
 62
     7
 10
-270.80768621940439
 20
-577.10795736418299
 30
0.0
 40
3.999999999999897
 50
184.63171383478431
 51
260.66010789762493
  0
ARC
  5
186
  8
DATA
  6
CONTINUOUS
 62
     7
 10
-253.1729797979801
 20
-379.3545833175167
 30
0.0
 40
203.20284854972451
 50
272.44620653905002
 51
276.93147959184438
  0
ARC
  5
187
  8
DATA
  6
CONTINUOUS
 62
     7
 10
-229.19231378059561
 20
-577.10795736418299
 30
0.0
 40
4.0000000000001128
 50
279.33989210237598
 51
355.36828616521592
  0
ARC
  5
188
  8
DATA
  6
CONTINUOUS
 62
     7
 10
-250.23873829375151
 20
-512.42735094338605
 30
0.0
 40
70.142506296807895
 50
265.69830771793818
 51
274.69161316599741
  0
ARC
  5
189
  8
DATA
  6
CONTINUOUS
 62
     7
 10
-247.5047130240213
 20
-582.93239894242959
 30
0.0
 40
27.838912483400609
 50
126.1953114532044
 51
168.60236487405851
  0
ARC
  5
18A
  8
DATA
  6
CONTINUOUS
 62
     7
 10
-252.49528697597921
 20
-582.93239894242959
 30
0.0
 40
27.838912483400811
 50
11.39763512594131
 51
53.598618277653969
  0
TEXT
  5
18B
  8
DATA
 62
     7
 10
-254.05400462962959
 20
-566.78150720229053
 30
0.0
 40
4.3435763888888879
  1
AKG
 41
0.7
 72
     1
 11
-250.0
 21
-564.60971900784614
 31
0.0
 73
     2
  0
POLYLINE
  5
18C
  8
DATA
  6
CONTINUOUS
 62
     7
 66
     1
 10
0.0
 20
0.0
 30
0.0
 70
     1
  0
VERTEX
  5
624
  8
DATA
  6
CONTINUOUS
 62
     7
 10
-257.50000000000011
 20
-141.8545067279031
 30
0.0
  0
VERTEX
  5
625
  8
DATA
  6
CONTINUOUS
 62
     7
 10
-242.5
 20
-141.8545067279031
 30
0.0
  0
VERTEX
  5
626
  8
DATA
  6
CONTINUOUS
 62
     7
 10
-242.5
 20
-156.8545067279031
 30
0.0
  0
VERTEX
  5
627
  8
DATA
  6
CONTINUOUS
 62
     7
 10
-257.50000000000011
 20
-156.8545067279031
 30
0.0
  0
SEQEND
  5
628
  8
DATA
  6
CONTINUOUS
 62
     7
  0
TEXT
  5
193
  8
DATA
 62
     7
 10
-259.50157335069451
 20
-572.77438629333164
 30
0.0
 40
3.2576822916666659
  1
CGN321STS
 41
0.7
 72
     1
 11
-250.0
 21
-571.14554514749818
 31
0.0
 73
     2
  0
LINE
  5
194
  8
DATA
  6
CONTINUOUS
 62
     7
 10
-235.50000000000031
 20
-559.00000000000125
 30
0.0
 11
-235.50000000000031
 21
-560.61461016536725
 31
0.0
  0
LINE
  5
195
  8
DATA
  6
CONTINUOUS
 62
     7
 10
-264.49999999999989
 20
-559.00000000000125
 30
0.0
 11
-264.49999999999989
 21
-560.54928255656705
 31
0.0
  0
ARC
  5
196
  8
DATA
  6
CONTINUOUS
 62
     7
 10
-250.210686469151
 20
-654.109135211178
 30
0.0
 40
94.644759548193676
 50
85.14470414669583
 51
98.683630005324105
  0
ARC
  5
197
  8
DATA
  6
CONTINUOUS
 62
     7
 10
-244.6004499441174
 20
-607.73867412377194
 30
0.0
 40
47.994745474282887
 50
79.069772733382095
 51
87.133164170844765
  0
ARC
  5
198
  8
DATA
  6
CONTINUOUS
 62
     7
 10
325.0
 20
-490.57541703474271
 30
0.0
 40
457.57541703474283
 50
85.900063973950694
 51
90.0
  0
ARC
  5
199
  8
DATA
  6
CONTINUOUS
 62
     7
 10
357.0
 20
-44.145406916892391
 30
0.0
 40
10.00000000000011
 50
0.0
 51
85.900063973950466
  0
ARC
  5
19A
  8
DATA
  6
CONTINUOUS
 62
     7
 10
334.25
 20
-86.750000000000043
 30
0.0
 40
88.406023550434583
 50
273.40451829948881
 51
279.27586519233103
  0
ARC
  5
19B
  8
DATA
  6
CONTINUOUS
 62
     7
 10
345.3815375026943
 20
-148.5701270864767
 30
0.0
 40
28.31876352534989
 50
311.21219730559483
 51
325.61884629240478
  0
ARC
  5
19C
  8
DATA
  6
CONTINUOUS
 62
     7
 10
357.45084792032202
 20
-162.35086883504141
 30
0.0
 40
10.0
 50
283.76988705792479
 51
311.21219730559483
  0
ARC
  5
19D
  8
DATA
  6
CONTINUOUS
 62
     7
 10
340.56250000000011
 20
-93.437500000000057
 30
0.0
 40
80.952580641385282
 50
275.62696257457088
 51
283.7698870579249
  0
ARC
  5
19E
  8
DATA
  6
CONTINUOUS
 62
     7
 10
356.49836776253142
 20
-157.78548110893311
 30
0.0
 40
14.00327546211761
 50
331.05984618416699
 51
359.12224051392008
  0
ARC
  5
19F
  8
DATA
  6
CONTINUOUS
 62
     7
 10
1597.457539450646
 20
-79.578638223260569
 30
0.0
 40
1229.4611476568509
 50
179.86118832126721
 51
183.65710251236959
  0
LINE
  5
1A0
  8
DATA
  6
CONTINUOUS
 62
     7
 10
368.00000000000011
 20
-76.5
 30
0.0
 11
367.00000000000011
 21
-43.999999999999943
 31
0.0
  0
LINE
  5
1A1
  8
DATA
  6
CONTINUOUS
 62
     7
 10
339.5
 20
-175.0
 30
0.0
 11
310.49999999999972
 21
-175.0
 31
0.0
  0
ARC
  5
1A2
  8
DATA
  6
CONTINUOUS
 62
     7
 10
325.0
 20
-490.57541703474271
 30
0.0
 40
457.57541703474288
 50
90.000000000000028
 51
94.099936026049363
  0
ARC
  5
1A3
  8
DATA
  6
CONTINUOUS
 62
     7
 10
292.99999999999972
 20
-44.145406916892391
 30
0.0
 40
10.0
 50
94.099936026048866
 51
180.0
  0
ARC
  5
1A4
  8
DATA
  6
CONTINUOUS
 62
     7
 10
315.74999999999989
 20
-86.750000000000043
 30
0.0
 40
88.406023550434611
 50
260.7241348076688
 51
266.5954817005113
  0
ARC
  5
1A5
  8
DATA
  6
CONTINUOUS
 62
     7
 10
304.61846249730547
 20
-148.5701270864767
 30
0.0
 40
28.318763525350001
 50
214.38115370759499
 51
228.7878026944052
  0
ARC
  5
1A6
  8
DATA
  6
CONTINUOUS
 62
     7
 10
292.54915207967781
 20
-162.35086883504141
 30
0.0
 40
10.00000000000003
 50
228.7878026944052
 51
256.23011294207453
  0
ARC
  5
1A7
  8
DATA
  6
CONTINUOUS
 62
     7
 10
309.43749999999972
 20
-93.437500000000057
 30
0.0
 40
80.952580641385367
 50
256.23011294207492
 51
264.37303742542889
  0
ARC
  5
1A8
  8
DATA
  6
CONTINUOUS
 62
     7
 10
293.50163223746819
 20
-157.78548110893311
 30
0.0
 40
14.00327546211769
 50
180.87775948607981
 51
208.94015381583301
  0
ARC
  5
1A9
  8
DATA
  6
CONTINUOUS
 62
     7
 10
-947.4575394506295
 20
-79.578638223260569
 30
0.0
 40
1229.4611476568341
 50
356.34289748763041
 51
0.1388116787327931
  0
LINE
  5
1AA
  8
DATA
  6
CONTINUOUS
 62
     7
 10
281.9999999999996
 20
-76.5
 30
0.0
 11
282.99999999999972
 21
-43.999999999999943
 31
0.0
  0
POLYLINE
  5
1AB
  8
DATA
  6
CONTINUOUS
 62
     7
 66
     1
 10
0.0
 20
0.0
 30
0.0
 70
     1
  0
VERTEX
  5
629
  8
DATA
  6
CONTINUOUS
 62
     7
 10
-256.50000000000011
 20
-146.3545067279031
 30
0.0
  0
VERTEX
  5
62A
  8
DATA
  6
CONTINUOUS
 62
     7
 10
-243.5
 20
-146.3545067279031
 30
0.0
  0
VERTEX
  5
62B
  8
DATA
  6
CONTINUOUS
 62
     7
 10
-243.5
 20
-152.3545067279031
 30
0.0
  0
VERTEX
  5
62C
  8
DATA
  6
CONTINUOUS
 62
     7
 10
-256.50000000000011
 20
-152.3545067279031
 30
0.0
  0
SEQEND
  5
62D
  8
DATA
  6
CONTINUOUS
 62
     7
  0
LINE
  5
1B2
  8
DATA
  6
CONTINUOUS
 62
     7
 10
223.81717415377759
 20
-156.8545067279031
 30
0.0
 11
218.54043840829681
 21
-141.85450672790321
 31
0.0
  0
LINE
  5
1B3
  8
DATA
  6
CONTINUOUS
 62
     7
 10
218.54043840829681
 20
-141.85450672790321
 30
0.0
 11
220.8099976727282
 21
-141.13297331931841
 31
0.0
  0
LINE
  5
1B4
  8
DATA
  6
CONTINUOUS
 62
     7
 10
223.81717415377759
 20
-156.8545067279031
 30
0.0
 11
226.00074944932231
 21
-156.0252177166017
 31
0.0
  0
LINE
  5
1B5
  8
DATA
  6
CONTINUOUS
 62
     7
 10
221.7341534301334
 20
-152.3545067279031
 30
0.0
 11
219.62345913194099
 21
-146.3545067279031
 31
0.0
  0
LINE
  5
1B6
  8
DATA
  6
CONTINUOUS
 62
     7
 10
219.62345913194099
 20
-146.3545067279031
 30
0.0
 11
220.06839761827851
 21
-146.19798520687661
 31
0.0
  0
LINE
  5
1B7
  8
DATA
  6
CONTINUOUS
 62
     7
 10
221.7341534301334
 20
-152.3545067279031
 30
0.0
 11
222.1790919164709
 21
-152.19798520687661
 31
0.0
  0
LINE
  5
1B8
  8
DATA
  6
CONTINUOUS
 62
     7
 10
-264.49999999999989
 20
-559.00000000000125
 30
0.0
 11
-235.50000000000031
 21
-559.00000000000125
 31
0.0
  0
LINE
  5
1B9
  8
DATA
  6
CONTINUOUS
 62
     7
 10
285.01071607904089
 20
-160.5
 30
0.0
 11
285.01071607904089
 21
-49.499999999999893
 31
0.0
  0
LINE
  5
1BA
  8
DATA
  6
CONTINUOUS
 62
     7
 10
365.01071607904152
 20
-160.5
 30
0.0
 11
365.01071607904152
 21
-49.499999999999893
 31
0.0
  0
LINE
  5
1BB
  8
DATA
  6
CONTINUOUS
 62
     7
 10
294.01071607904089
 20
-35.999999999999851
 30
0.0
 11
302.510716079041
 21
-35.999999999999851
 31
0.0
  0
LINE
  5
1BC
  8
DATA
  6
CONTINUOUS
 62
     7
 10
347.51071607904129
 20
-35.999999999999851
 30
0.0
 11
356.01071607904129
 21
-35.999999999999851
 31
0.0
  0
LINE
  5
1BD
  8
DATA
  6
CONTINUOUS
 62
     7
 10
288.51071607904089
 20
-45.999999999999893
 30
0.0
 11
361.51071607904152
 21
-45.999999999999893
 31
0.0
  0
LINE
  5
1BE
  8
DATA
  6
CONTINUOUS
 62
     7
 10
288.51071607904089
 20
-164.0
 30
0.0
 11
361.51071607904152
 21
-164.0
 31
0.0
  0
CIRCLE
  5
1BF
  8
DATA
  6
CONTINUOUS
 62
     7
 10
295.510716079041
 20
-52.999999999999929
 30
0.0
 40
4.0
  0
CIRCLE
  5
1C0
  8
DATA
  6
CONTINUOUS
 62
     7
 10
295.510716079041
 20
-155.00000000000011
 30
0.0
 40
4.0
  0
CIRCLE
  5
1C1
  8
DATA
  6
CONTINUOUS
 62
     7
 10
354.51071607904129
 20
-155.00000000000011
 30
0.0
 40
4.0
  0
CIRCLE
  5
1C2
  8
DATA
  6
CONTINUOUS
 62
     7
 10
354.51071607904129
 20
-52.999999999999929
 30
0.0
 40
4.0
  0
LINE
  5
1C3
  8
DATA
  6
CONTINUOUS
 62
     7
 10
280.09825596165081
 20
-147.9999999999994
 30
0.0
 11
284.01071607904078
 21
-147.9999999999994
 31
0.0
  0
LINE
  5
1C4
  8
DATA
  6
CONTINUOUS
 62
     7
 10
366.01071607904152
 20
-147.9999999999994
 30
0.0
 11
369.90174403834891
 21
-147.9999999999994
 31
0.0
  0
ARC
  5
1C5
  8
DATA
  6
CONTINUOUS
 62
     7
 10
288.51071607904089
 20
-49.499999999999893
 30
0.0
 40
3.5
 50
90.0
 51
180.0
  0
ARC
  5
1C6
  8
DATA
  6
CONTINUOUS
 62
     7
 10
361.51071607904152
 20
-49.499999999999893
 30
0.0
 40
3.5
 50
0.0
 51
90.0
  0
ARC
  5
1C7
  8
DATA
  6
CONTINUOUS
 62
     7
 10
288.51071607904089
 20
-160.5
 30
0.0
 40
3.5
 50
180.0
 51
270.0
  0
ARC
  5
1C8
  8
DATA
  6
CONTINUOUS
 62
     7
 10
361.51071607904152
 20
-160.5
 30
0.0
 40
3.5
 50
270.0
 51
0.0
  0
LINE
  5
1C9
  8
DATA
  6
CONTINUOUS
 62
     7
 10
284.01071607904078
 20
-147.9999999999994
 30
0.0
 11
284.01071607904078
 21
-45.999999999999893
 31
0.0
  0
LINE
  5
1CA
  8
DATA
  6
CONTINUOUS
 62
     7
 10
366.01071607904152
 20
-45.999999999999893
 30
0.0
 11
366.01071607904152
 21
-147.9999999999994
 31
0.0
  0
ARC
  5
1CB
  8
DATA
  6
CONTINUOUS
 62
     7
 10
294.01071607904089
 20
-45.999999999999893
 30
0.0
 40
10.00000000000002
 50
90.0
 51
180.0
  0
ARC
  5
1CC
  8
DATA
  6
CONTINUOUS
 62
     7
 10
356.01071607904129
 20
-45.999999999999893
 30
0.0
 40
10.00000000000011
 50
0.0
 51
90.0
  0
ARC
  5
1CD
  8
DATA
  6
CONTINUOUS
 62
     7
 10
311.78472428860312
 20
-45.237125132397807
 30
0.0
 40
13.0893738957447
 50
115.1141605876538
 51
135.1141605876538
  0
ARC
  5
1CE
  8
DATA
  6
CONTINUOUS
 62
     7
 10
338.21527571139671
 20
-45.237125132397807
 30
0.0
 40
13.089373895744719
 50
44.885839412346222
 51
64.885839412346186
  0
LINE
  5
1CF
  8
DATA
  6
CONTINUOUS
 62
     7
 10
310.51071607904112
 20
-43.827803568794558
 30
0.0
 11
310.51071607904112
 21
-37.827803568794572
 31
0.0
  0
LINE
  5
1D0
  8
DATA
  6
CONTINUOUS
 62
     7
 10
339.51071607904129
 20
-43.827803568794558
 30
0.0
 11
310.51071607904112
 21
-43.827803568794558
 31
0.0
  0
LINE
  5
1D1
  8
DATA
  6
CONTINUOUS
 62
     7
 10
339.51071607904129
 20
-37.827803568794572
 30
0.0
 11
339.51071607904129
 21
-43.827803568794558
 31
0.0
  0
LINE
  5
1D2
  8
DATA
  6
CONTINUOUS
 62
     7
 10
310.51071607904112
 20
-37.827803568794572
 30
0.0
 11
339.51071607904129
 21
-37.827803568794572
 31
0.0
  0
LINE
  5
1D3
  8
DATA
  6
CONTINUOUS
 62
     7
 10
313.89999999999998
 20
-33.289011353306137
 30
0.0
 11
313.89999999999998
 21
-33.134653356516452
 31
0.0
  0
LINE
  5
1D4
  8
DATA
  6
CONTINUOUS
 62
     7
 10
336.10000000000008
 20
-33.289011353306137
 30
0.0
 11
313.89999999999998
 21
-33.289011353306137
 31
0.0
  0
LINE
  5
1D5
  8
DATA
  6
CONTINUOUS
 62
     7
 10
336.10000000000008
 20
-33.13465335651648
 30
0.0
 11
336.10000000000008
 21
-33.289011353306137
 31
0.0
  0
LINE
  5
1D6
  8
DATA
  6
CONTINUOUS
 62
     7
 10
296.510716079041
 20
-169.22545626368529
 30
0.0
 11
296.510716079041
 21
-166.92545626368539
 31
0.0
  0
LINE
  5
1D7
  8
DATA
  6
CONTINUOUS
 62
     7
 10
353.51071607904129
 20
-166.92545626368539
 30
0.0
 11
353.51071607904129
 21
-169.22545626368529
 31
0.0
  0
LINE
  5
1D8
  8
DATA
  6
CONTINUOUS
 62
     7
 10
296.510716079041
 20
-166.92545626368539
 30
0.0
 11
353.51071607904129
 21
-166.92545626368539
 31
0.0
  0
ARC
  5
1D9
  8
DATA
  6
CONTINUOUS
 62
     7
 10
325.01071607904117
 20
-51.476926851920837
 30
0.0
 40
121.1485294117646
 50
256.3937333329938
 51
283.6062666670062
  0
CIRCLE
  5
1DA
  8
DATA
  6
CONTINUOUS
 62
     7
 10
325.01071607904117
 20
-97.0
 30
0.0
 40
5.0
  0
POLYLINE
  5
1DB
  8
DATA
  6
CONTINUOUS
 62
     7
 66
     1
 10
0.0
 20
0.0
 30
0.0
 70
     1
  0
VERTEX
  5
62E
  8
DATA
  6
CONTINUOUS
 62
     7
 10
321.76071607904112
 20
-93.749999999999957
 30
0.0
  0
VERTEX
  5
62F
  8
DATA
  6
CONTINUOUS
 62
     7
 10
328.26071607904112
 20
-93.749999999999957
 30
0.0
  0
VERTEX
  5
630
  8
DATA
  6
CONTINUOUS
 62
     7
 10
328.26071607904112
 20
-100.2499999999999
 30
0.0
  0
VERTEX
  5
631
  8
DATA
  6
CONTINUOUS
 62
     7
 10
321.76071607904112
 20
-100.2499999999999
 30
0.0
  0
SEQEND
  5
632
  8
DATA
  6
CONTINUOUS
 62
     7
  0
CIRCLE
  5
1E2
  8
DATA
  6
CONTINUOUS
 62
     7
 10
325.01071607904117
 20
-97.0
 30
0.0
 40
1.462194702544223
  0
LINE
  5
1E3
  8
DATA
  6
CONTINUOUS
 62
     7
 10
304.510716079041
 20
-104.94675972548811
 30
0.0
 11
345.51071607904129
 21
-104.94675972548811
 31
0.0
  0
LINE
  5
1E4
  8
DATA
  6
CONTINUOUS
 62
     7
 10
304.510716079041
 20
-154.0467597254881
 30
0.0
 11
304.510716079041
 21
-104.94675972548811
 31
0.0
  0
LINE
  5
1E5
  8
DATA
  6
CONTINUOUS
 62
     7
 10
345.51071607904129
 20
-154.0467597254881
 30
0.0
 11
345.51071607904129
 21
-104.94675972548811
 31
0.0
  0
LINE
  5
1E6
  8
DATA
  6
CONTINUOUS
 62
     7
 10
304.510716079041
 20
-107.94675972548811
 30
0.0
 11
345.51071607904129
 21
-107.94675972548811
 31
0.0
  0
LINE
  5
1E7
  8
DATA
  6
CONTINUOUS
 62
     7
 10
304.510716079041
 20
-110.2467597254881
 30
0.0
 11
345.51071607904129
 21
-110.2467597254881
 31
0.0
  0
LINE
  5
1E8
  8
DATA
  6
CONTINUOUS
 62
     7
 10
304.510716079041
 20
-112.5467597254881
 30
0.0
 11
345.51071607904129
 21
-112.5467597254881
 31
0.0
  0
LINE
  5
1E9
  8
DATA
  6
CONTINUOUS
 62
     7
 10
304.510716079041
 20
-114.8467597254881
 30
0.0
 11
345.51071607904129
 21
-114.8467597254881
 31
0.0
  0
LINE
  5
1EA
  8
DATA
  6
CONTINUOUS
 62
     7
 10
304.510716079041
 20
-117.1467597254881
 30
0.0
 11
345.51071607904129
 21
-117.1467597254881
 31
0.0
  0
LINE
  5
1EB
  8
DATA
  6
CONTINUOUS
 62
     7
 10
304.510716079041
 20
-119.44675972548811
 30
0.0
 11
345.51071607904129
 21
-119.44675972548811
 31
0.0
  0
LINE
  5
1EC
  8
DATA
  6
CONTINUOUS
 62
     7
 10
304.510716079041
 20
-121.7467597254882
 30
0.0
 11
345.51071607904129
 21
-121.7467597254882
 31
0.0
  0
LINE
  5
1ED
  8
DATA
  6
CONTINUOUS
 62
     7
 10
304.510716079041
 20
-124.0467597254882
 30
0.0
 11
345.51071607904129
 21
-124.0467597254882
 31
0.0
  0
LINE
  5
1EE
  8
DATA
  6
CONTINUOUS
 62
     7
 10
304.510716079041
 20
-126.3467597254882
 30
0.0
 11
345.51071607904129
 21
-126.3467597254882
 31
0.0
  0
LINE
  5
1EF
  8
DATA
  6
CONTINUOUS
 62
     7
 10
304.510716079041
 20
-128.64675972548821
 30
0.0
 11
345.51071607904129
 21
-128.64675972548821
 31
0.0
  0
LINE
  5
1F0
  8
DATA
  6
CONTINUOUS
 62
     7
 10
304.510716079041
 20
-130.94675972548811
 30
0.0
 11
345.51071607904129
 21
-130.94675972548811
 31
0.0
  0
LINE
  5
1F1
  8
DATA
  6
CONTINUOUS
 62
     7
 10
304.510716079041
 20
-133.2467597254882
 30
0.0
 11
345.51071607904129
 21
-133.2467597254882
 31
0.0
  0
LINE
  5
1F2
  8
DATA
  6
CONTINUOUS
 62
     7
 10
304.510716079041
 20
-135.54675972548819
 30
0.0
 11
345.51071607904129
 21
-135.54675972548819
 31
0.0
  0
LINE
  5
1F3
  8
DATA
  6
CONTINUOUS
 62
     7
 10
304.510716079041
 20
-137.8467597254882
 30
0.0
 11
345.51071607904129
 21
-137.8467597254882
 31
0.0
  0
LINE
  5
1F4
  8
DATA
  6
CONTINUOUS
 62
     7
 10
304.510716079041
 20
-140.14675972548821
 30
0.0
 11
345.51071607904129
 21
-140.14675972548821
 31
0.0
  0
LINE
  5
1F5
  8
DATA
  6
CONTINUOUS
 62
     7
 10
304.510716079041
 20
-142.44675972548811
 30
0.0
 11
345.51071607904129
 21
-142.44675972548811
 31
0.0
  0
LINE
  5
1F6
  8
DATA
  6
CONTINUOUS
 62
     7
 10
304.510716079041
 20
-144.7467597254882
 30
0.0
 11
345.51071607904129
 21
-144.7467597254882
 31
0.0
  0
LINE
  5
1F7
  8
DATA
  6
CONTINUOUS
 62
     7
 10
304.510716079041
 20
-147.0467597254881
 30
0.0
 11
345.51071607904129
 21
-147.0467597254881
 31
0.0
  0
LINE
  5
1F8
  8
DATA
  6
CONTINUOUS
 62
     7
 10
313.51071607904112
 20
-107.94675972548811
 30
0.0
 11
313.51071607904112
 21
-147.0467597254881
 31
0.0
  0
LINE
  5
1F9
  8
DATA
  6
CONTINUOUS
 62
     7
 10
322.51071607904112
 20
-107.94675972548811
 30
0.0
 11
322.51071607904112
 21
-147.0467597254881
 31
0.0
  0
LINE
  5
1FA
  8
DATA
  6
CONTINUOUS
 62
     7
 10
331.51071607904117
 20
-107.94675972548811
 30
0.0
 11
331.51071607904117
 21
-147.0467597254881
 31
0.0
  0
TEXT
  5
1FB
  8
DATA
 62
     7
 10
308.73420705371592
 20
-107.4806139606812
 30
0.0
 40
1.954609375
  1
disconnect before setting
 41
0.7
 72
     1
 11
324.14955965788261
 21
-106.5033092731812
 31
0.0
 73
     2
  0
TEXT
  5
1FC
  8
DATA
 62
     7
 10
307.10957713596792
 20
-109.7536874135812
 30
0.0
 40
1.954609375
  1
pos
 41
0.7
 72
     1
 11
308.93387921930128
 21
-108.7763827260812
 31
0.0
 73
     2
  0
TEXT
  5
1FD
  8
DATA
 62
     7
 10
308.73355874198433
 20
-112.2718666224151
 30
0.0
 40
1.6288411458333329
  1
0
 41
0.7
 72
     1
 11
309.01860594250508
 21
-111.4574460494984
 31
0.0
 73
     2
  0
TEXT
  5
1FE
  8
DATA
 62
     7
 10
308.82857447549122
 20
-114.5718666224151
 30
0.0
 40
1.6288411458333329
  1
1
 41
0.7
 72
     1
 11
309.01860594250508
 21
-113.7574460494984
 31
0.0
 73
     2
  0
TEXT
  5
1FF
  8
DATA
 62
     7
 10
308.63854300847731
 20
-116.8718666224151
 30
0.0
 40
1.6288411458333329
  1
2
 41
0.7
 72
     1
 11
309.01860594250508
 21
-116.0574460494984
 31
0.0
 73
     2
  0
TEXT
  5
200
  8
DATA
 62
     7
 10
308.63854300847731
 20
-119.1718666224151
 30
0.0
 40
1.6288411458333329
  1
3
 41
0.7
 72
     1
 11
309.01860594250508
 21
-118.35744604949841
 31
0.0
 73
     2
  0
TEXT
  5
201
  8
DATA
 62
     7
 10
308.63854300847731
 20
-121.47186662241511
 30
0.0
 40
1.6288411458333329
  1
4
 41
0.7
 72
     1
 11
309.01860594250508
 21
-120.6574460494985
 31
0.0
 73
     2
  0
TEXT
  5
202
  8
DATA
 62
     7
 10
308.63854300847731
 20
-123.7718666224151
 30
0.0
 40
1.6288411458333329
  1
5
 41
0.7
 72
     1
 11
309.01860594250508
 21
-122.9574460494985
 31
0.0
 73
     2
  0
TEXT
  5
203
  8
DATA
 62
     7
 10
308.63854300847731
 20
-126.0718666224152
 30
0.0
 40
1.6288411458333329
  1
6
 41
0.7
 72
     1
 11
309.01860594250508
 21
-125.2574460494985
 31
0.0
 73
     2
  0
TEXT
  5
204
  8
DATA
 62
     7
 10
308.63854300847731
 20
-128.37186662241521
 30
0.0
 40
1.6288411458333329
  1
7
 41
0.7
 72
     1
 11
309.01860594250508
 21
-127.55744604949849
 31
0.0
 73
     2
  0
TEXT
  5
205
  8
DATA
 62
     7
 10
308.63854300847731
 20
-130.67186662241519
 30
0.0
 40
1.6288411458333329
  1
8
 41
0.7
 72
     1
 11
309.01860594250508
 21
-129.85744604949849
 31
0.0
 73
     2
  0
TEXT
  5
206
  8
DATA
 62
     7
 10
308.63854300847731
 20
-132.97186662241521
 30
0.0
 40
1.6288411458333329
  1
9
 41
0.7
 72
     1
 11
309.01860594250508
 21
-132.1574460494985
 31
0.0
 73
     2
  0
TEXT
  5
207
  8
DATA
 62
     7
 10
308.63854300847731
 20
-135.27186662241519
 30
0.0
 40
1.6288411458333329
  1
A
 41
0.7
 72
     1
 11
309.01860594250508
 21
-134.45744604949849
 31
0.0
 73
     2
  0
TEXT
  5
208
  8
DATA
 62
     7
 10
308.63854300847731
 20
-137.5718666224152
 30
0.0
 40
1.6288411458333329
  1
B
 41
0.7
 72
     1
 11
309.01860594250508
 21
-136.7574460494985
 31
0.0
 73
     2
  0
TEXT
  5
209
  8
DATA
 62
     7
 10
308.63854300847731
 20
-139.8718666224151
 30
0.0
 40
1.6288411458333329
  1
C
 41
0.7
 72
     1
 11
309.01860594250508
 21
-139.05744604949851
 31
0.0
 73
     2
  0
TEXT
  5
20A
  8
DATA
 62
     7
 10
308.63854300847731
 20
-142.17186662241511
 30
0.0
 40
1.6288411458333329
  1
D
 41
0.7
 72
     1
 11
309.01860594250508
 21
-141.35744604949841
 31
0.0
 73
     2
  0
TEXT
  5
20B
  8
DATA
 62
     7
 10
308.63854300847731
 20
-144.47186662241521
 30
0.0
 40
1.6288411458333329
  1
E
 41
0.7
 72
     1
 11
309.01860594250508
 21
-143.6574460494985
 31
0.0
 73
     2
  0
TEXT
  5
20C
  8
DATA
 62
     7
 10
308.63854300847731
 20
-146.7718666224151
 30
0.0
 40
1.6288411458333329
  1
F
 41
0.7
 72
     1
 11
309.01860594250508
 21
-145.9574460494984
 31
0.0
 73
     2
  0
TEXT
  5
20D
  8
DATA
 62
     7
 10
316.48932030205322
 20
-109.9196340532889
 30
0.0
 40
1.563687499999999
  1
LED
 41
0.7
 72
     1
 11
317.94876196871979
 21
-109.1377903032888
 31
0.0
 73
     2
  0
TEXT
  5
20E
  8
DATA
 62
     7
 10
316.44100679252699
 20
-112.2718666224151
 30
0.0
 40
1.6288411458333329
  1
off
 41
0.7
 72
     1
 11
317.9612585286381
 21
-111.4574460494984
 31
0.0
 73
     2
  0
TEXT
  5
20F
  8
DATA
 62
     7
 10
316.99212249604358
 20
-130.52844277076241
 30
0.0
 40
1.6288411458333329
  1
on
 41
0.7
 72
     1
 11
317.94227983111313
 21
-129.71402219784579
 31
0.0
 73
     2
  0
TEXT
  5
210
  8
DATA
 62
     7
 10
316.44100679252699
 20
-114.5718666224151
 30
0.0
 40
1.6288411458333329
  1
off
 41
0.7
 72
     1
 11
317.9612585286381
 21
-113.7574460494984
 31
0.0
 73
     2
  0
TEXT
  5
211
  8
DATA
 62
     7
 10
316.44100679252699
 20
-116.8718666224151
 30
0.0
 40
1.6288411458333329
  1
off
 41
0.7
 72
     1
 11
317.9612585286381
 21
-116.0574460494984
 31
0.0
 73
     2
  0
TEXT
  5
212
  8
DATA
 62
     7
 10
316.44100679252699
 20
-119.1718666224151
 30
0.0
 40
1.6288411458333329
  1
off
 41
0.7
 72
     1
 11
317.9612585286381
 21
-118.35744604949841
 31
0.0
 73
     2
  0
TEXT
  5
213
  8
DATA
 62
     7
 10
316.44100679252699
 20
-121.47186662241511
 30
0.0
 40
1.6288411458333329
  1
off
 41
0.7
 72
     1
 11
317.9612585286381
 21
-120.6574460494985
 31
0.0
 73
     2
  0
TEXT
  5
214
  8
DATA
 62
     7
 10
316.44100679252699
 20
-123.7718666224151
 30
0.0
 40
1.6288411458333329
  1
off
 41
0.7
 72
     1
 11
317.9612585286381
 21
-122.9574460494985
 31
0.0
 73
     2
  0
TEXT
  5
215
  8
DATA
 62
     7
 10
316.44100679252699
 20
-126.0718666224152
 30
0.0
 40
1.6288411458333329
  1
off
 41
0.7
 72
     1
 11
317.9612585286381
 21
-125.2574460494985
 31
0.0
 73
     2
  0
TEXT
  5
216
  8
DATA
 62
     7
 10
316.44100679252699
 20
-128.37186662241521
 30
0.0
 40
1.6288411458333329
  1
off
 41
0.7
 72
     1
 11
317.9612585286381
 21
-127.55744604949849
 31
0.0
 73
     2
  0
TEXT
  5
217
  8
DATA
 62
     7
 10
316.99212249604358
 20
-132.82844277076239
 30
0.0
 40
1.6288411458333329
  1
on
 41
0.7
 72
     1
 11
317.94227983111313
 21
-132.01402219784569
 31
0.0
 73
     2
  0
TEXT
  5
218
  8
DATA
 62
     7
 10
316.99212249604358
 20
-135.1284427707624
 30
0.0
 40
1.6288411458333329
  1
on
 41
0.7
 72
     1
 11
317.94227983111313
 21
-134.3140221978457
 31
0.0
 73
     2
  0
TEXT
  5
219
  8
DATA
 62
     7
 10
316.99212249604358
 20
-137.42844277076239
 30
0.0
 40
1.6288411458333329
  1
on
 41
0.7
 72
     1
 11
317.94227983111313
 21
-136.61402219784571
 31
0.0
 73
     2
  0
TEXT
  5
21A
  8
DATA
 62
     7
 10
316.99212249604358
 20
-139.7284427707624
 30
0.0
 40
1.6288411458333329
  1
on
 41
0.7
 72
     1
 11
317.94227983111313
 21
-138.91402219784581
 31
0.0
 73
     2
  0
TEXT
  5
21B
  8
DATA
 62
     7
 10
316.99212249604358
 20
-142.02844277076241
 30
0.0
 40
1.6288411458333329
  1
on
 41
0.7
 72
     1
 11
317.94227983111313
 21
-141.21402219784571
 31
0.0
 73
     2
  0
TEXT
  5
21C
  8
DATA
 62
     7
 10
316.99212249604358
 20
-144.32844277076239
 30
0.0
 40
1.6288411458333329
  1
on
 41
0.7
 72
     1
 11
317.94227983111313
 21
-143.51402219784569
 31
0.0
 73
     2
  0
TEXT
  5
21D
  8
DATA
 62
     7
 10
316.99212249604358
 20
-146.6284427707624
 30
0.0
 40
1.6288411458333329
  1
on
 41
0.7
 72
     1
 11
317.94227983111313
 21
-145.8140221978457
 31
0.0
 73
     2
  0
TEXT
  5
21E
  8
DATA
 62
     7
 10
323.2287960000977
 20
-109.9833223824449
 30
0.0
 40
1.563687499999999
  1
BASSCUT
 41
0.7
 72
     1
 11
326.87740016676429
 21
-109.2014786324449
 31
0.0
 73
     2
  0
TEXT
  5
21F
  8
DATA
 62
     7
 10
325.44100679252699
 20
-112.2718666224151
 30
0.0
 40
1.6288411458333329
  1
off
 41
0.7
 72
     1
 11
326.9612585286381
 21
-111.4574460494984
 31
0.0
 73
     2
  0
TEXT
  5
220
  8
DATA
 62
     7
 10
325.44100679252699
 20
-114.5718666224151
 30
0.0
 40
1.6288411458333329
  1
off
 41
0.7
 72
     1
 11
326.9612585286381
 21
-113.7574460494984
 31
0.0
 73
     2
  0
TEXT
  5
221
  8
DATA
 62
     7
 10
325.44100679252699
 20
-116.8718666224151
 30
0.0
 40
1.6288411458333329
  1
off
 41
0.7
 72
     1
 11
326.9612585286381
 21
-116.0574460494984
 31
0.0
 73
     2
  0
TEXT
  5
222
  8
DATA
 62
     7
 10
325.44100679252699
 20
-119.1718666224151
 30
0.0
 40
1.6288411458333329
  1
off
 41
0.7
 72
     1
 11
326.9612585286381
 21
-118.35744604949841
 31
0.0
 73
     2
  0
TEXT
  5
223
  8
DATA
 62
     7
 10
325.44100679252699
 20
-130.67186662241511
 30
0.0
 40
1.6288411458333329
  1
off
 41
0.7
 72
     1
 11
326.9612585286381
 21
-129.85744604949849
 31
0.0
 73
     2
  0
TEXT
  5
224
  8
DATA
 62
     7
 10
325.44100679252699
 20
-132.97186662241521
 30
0.0
 40
1.6288411458333329
  1
off
 41
0.7
 72
     1
 11
326.9612585286381
 21
-132.1574460494985
 31
0.0
 73
     2
  0
TEXT
  5
225
  8
DATA
 62
     7
 10
325.44100679252699
 20
-135.27186662241519
 30
0.0
 40
1.6288411458333329
  1
off
 41
0.7
 72
     1
 11
326.9612585286381
 21
-134.45744604949849
 31
0.0
 73
     2
  0
TEXT
  5
226
  8
DATA
 62
     7
 10
325.44100679252699
 20
-137.5718666224152
 30
0.0
 40
1.6288411458333329
  1
off
 41
0.7
 72
     1
 11
326.9612585286381
 21
-136.7574460494985
 31
0.0
 73
     2
  0
TEXT
  5
227
  8
DATA
 62
     7
 10
326.05522452363442
 20
-121.2229262242293
 30
0.0
 40
1.6288411458333329
  1
on
 41
0.7
 72
     1
 11
327.0053818587038
 21
-120.40850565131259
 31
0.0
 73
     2
  0
TEXT
  5
228
  8
DATA
 62
     7
 10
326.05522452363442
 20
-123.52292622422929
 30
0.0
 40
1.6288411458333329
  1
on
 41
0.7
 72
     1
 11
327.0053818587038
 21
-122.70850565131271
 31
0.0
 73
     2
  0
TEXT
  5
229
  8
DATA
 62
     7
 10
326.05522452363442
 20
-125.82292622422931
 30
0.0
 40
1.6288411458333329
  1
on
 41
0.7
 72
     1
 11
327.0053818587038
 21
-125.0085056513127
 31
0.0
 73
     2
  0
TEXT
  5
22A
  8
DATA
 62
     7
 10
326.05522452363442
 20
-128.1229262242293
 30
0.0
 40
1.6288411458333329
  1
on
 41
0.7
 72
     1
 11
327.0053818587038
 21
-127.3085056513126
 31
0.0
 73
     2
  0
TEXT
  5
22B
  8
DATA
 62
     7
 10
325.99212249604381
 20
-139.7284427707624
 30
0.0
 40
1.6288411458333329
  1
on
 41
0.7
 72
     1
 11
326.94227983111318
 21
-138.91402219784581
 31
0.0
 73
     2
  0
TEXT
  5
22C
  8
DATA
 62
     7
 10
325.99212249604381
 20
-142.02844277076241
 30
0.0
 40
1.6288411458333329
  1
on
 41
0.7
 72
     1
 11
326.94227983111318
 21
-141.21402219784571
 31
0.0
 73
     2
  0
TEXT
  5
22D
  8
DATA
 62
     7
 10
325.99212249604381
 20
-144.32844277076239
 30
0.0
 40
1.6288411458333329
  1
on
 41
0.7
 72
     1
 11
326.94227983111318
 21
-143.51402219784569
 31
0.0
 73
     2
  0
TEXT
  5
22E
  8
DATA
 62
     7
 10
325.99212249604381
 20
-146.6284427707624
 30
0.0
 40
1.6288411458333329
  1
on
 41
0.7
 72
     1
 11
326.94227983111318
 21
-145.8140221978457
 31
0.0
 73
     2
  0
LINE
  5
22F
  8
DATA
  6
CONTINUOUS
 62
     7
 10
323.97678835962262
 20
-98.033927859749426
 30
0.0
 11
326.04464379845967
 21
-95.966072140250475
 31
0.0
  0
TEXT
  5
230
  8
DATA
 62
     7
 10
335.2737968780292
 20
-109.9833223824449
 30
0.0
 40
1.563687499999999
  1
SWITCH
 41
0.7
 72
     1
 11
338.37511041969589
 21
-109.2014786324449
 31
0.0
 73
     2
  0
TEXT
  5
231
  8
DATA
 62
     7
 10
335.2737968780292
 20
-112.25153406789759
 30
0.0
 40
1.563687499999999
  1
on/off
 41
0.7
 72
     1
 11
338.37511041969589
 21
-111.4696903178976
 31
0.0
 73
     2
  0
TEXT
  5
232
  8
DATA
 62
     7
 10
332.59058936274641
 20
-114.45616912425579
 30
0.0
 40
1.563687499999999
  1
push to talk
 41
0.7
 72
     1
 11
338.26416884191309
 21
-113.6743253742559
 31
0.0
 73
     2
  0
TEXT
  5
233
  8
DATA
 62
     7
 10
332.34873236479359
 20
-116.7879574388031
 30
0.0
 40
1.563687499999999
  1
push to mute
 41
0.7
 72
     1
 11
338.29595715646019
 21
-116.0061136888031
 31
0.0
 73
     2
  0
TEXT
  5
234
  8
DATA
 62
     7
 10
338.15236686176212
 20
-119.0879574388031
 30
0.0
 40
1.563687499999999
  1
-
 41
0.7
 72
     1
 11
338.51722727842878
 21
-118.30611368880309
 31
0.0
 73
     2
  0
TEXT
  5
235
  8
DATA
 62
     7
 10
335.2737968780292
 20
-121.3879574388032
 30
0.0
 40
1.563687499999999
  1
on/off
 41
0.7
 72
     1
 11
338.37511041969589
 21
-120.60611368880321
 31
0.0
 73
     2
  0
TEXT
  5
236
  8
DATA
 62
     7
 10
332.59058936274641
 20
-123.656169124256
 30
0.0
 40
1.563687499999999
  1
push to talk
 41
0.7
 72
     1
 11
338.26416884191309
 21
-122.874325374256
 31
0.0
 73
     2
  0
TEXT
  5
237
  8
DATA
 62
     7
 10
332.34873236479359
 20
-125.98795743880321
 30
0.0
 40
1.563687499999999
  1
push to mute
 41
0.7
 72
     1
 11
338.29595715646019
 21
-125.2061136888032
 31
0.0
 73
     2
  0
TEXT
  5
238
  8
DATA
 62
     7
 10
338.15236686176212
 20
-128.2879574388032
 30
0.0
 40
1.563687499999999
  1
-
 41
0.7
 72
     1
 11
338.51722727842878
 21
-127.5061136888032
 31
0.0
 73
     2
  0
TEXT
  5
239
  8
DATA
 62
     7
 10
335.2737968780292
 20
-130.58795743880319
 30
0.0
 40
1.563687499999999
  1
on/off
 41
0.7
 72
     1
 11
338.37511041969589
 21
-129.80611368880321
 31
0.0
 73
     2
  0
TEXT
  5
23A
  8
DATA
 62
     7
 10
332.59058936274641
 20
-132.85616912425601
 30
0.0
 40
1.563687499999999
  1
push to talk
 41
0.7
 72
     1
 11
338.26416884191309
 21
-132.07432537425601
 31
0.0
 73
     2
  0
TEXT
  5
23B
  8
DATA
 62
     7
 10
332.34873236479359
 20
-135.18795743880321
 30
0.0
 40
1.563687499999999
  1
push to mute
 41
0.7
 72
     1
 11
338.29595715646019
 21
-134.4061136888032
 31
0.0
 73
     2
  0
TEXT
  5
23C
  8
DATA
 62
     7
 10
338.15236686176212
 20
-137.48795743880319
 30
0.0
 40
1.563687499999999
  1
-
 41
0.7
 72
     1
 11
338.51722727842878
 21
-136.70611368880321
 31
0.0
 73
     2
  0
TEXT
  5
23D
  8
DATA
 62
     7
 10
335.2737968780292
 20
-139.7879574388032
 30
0.0
 40
1.563687499999999
  1
on/off
 41
0.7
 72
     1
 11
338.37511041969589
 21
-139.0061136888032
 31
0.0
 73
     2
  0
TEXT
  5
23E
  8
DATA
 62
     7
 10
332.59058936274641
 20
-142.05616912425589
 30
0.0
 40
1.563687499999999
  1
push to talk
 41
0.7
 72
     1
 11
338.26416884191309
 21
-141.27432537425591
 31
0.0
 73
     2
  0
TEXT
  5
23F
  8
DATA
 62
     7
 10
332.34873236479359
 20
-144.3879574388032
 30
0.0
 40
1.563687499999999
  1
push to mute
 41
0.7
 72
     1
 11
338.29595715646019
 21
-143.60611368880319
 31
0.0
 73
     2
  0
TEXT
  5
240
  8
DATA
 62
     7
 10
338.15236686176212
 20
-146.68795743880321
 30
0.0
 40
1.563687499999999
  1
-
 41
0.7
 72
     1
 11
338.51722727842878
 21
-145.9061136888032
 31
0.0
 73
     2
  0
LINE
  5
241
  8
DATA
  6
CONTINUOUS
 62
     7
 10
304.510716079041
 20
-154.0467597254881
 30
0.0
 11
345.51071607904129
 21
-154.0467597254881
 31
0.0
  0
TEXT
  5
242
  8
DATA
 62
     7
 10
321.93978254241239
 20
-151.2009589071543
 30
0.0
 40
1.7374305555555549
  1
Made in Philippines
 41
0.7
 11
321.93978254241239
 21
-150.33224362937659
 31
0.0
 73
     2
  0
LINE
  5
243
  8
DATA
  6
CONTINUOUS
 62
     7
 10
178.767458151818
 20
-237.5
 30
0.0
 11
425.0
 21
-237.5
 31
0.0
  0
LINE
  5
244
  8
DATA
  6
CONTINUOUS
 62
     7
 10
-257.50000000000011
 20
-578.84720457049934
 30
0.0
 11
-257.50000000000011
 21
-580.74185978138905
 31
0.0
  0
LINE
  5
245
  8
DATA
  6
CONTINUOUS
 62
     7
 10
-242.5000000000004
 20
-578.84720457049934
 30
0.0
 11
-242.5000000000004
 21
-580.74185978138905
 31
0.0
  0
LINE
  5
246
  8
DATA
  6
CONTINUOUS
 62
     7
 10
-257.50000000000011
 20
-580.74185978138905
 30
0.0
 11
-242.5000000000004
 21
-580.74185978138905
 31
0.0
  0
ARC
  5
247
  8
DATA
  6
CONTINUOUS
 62
     7
 10
-250.00000000000031
 20
-563.29179783039956
 30
0.0
 40
17.269067110007288
 50
244.25907721116869
 51
295.7409227888316
  0
LINE
  5
248
  8
DATA
  6
CONTINUOUS
 62
     7
 10
-257.50000000000011
 20
-578.84720457049934
 30
0.0
 11
-257.50000000000011
 21
-576.15601142103435
 31
0.0
  0
LINE
  5
249
  8
DATA
  6
CONTINUOUS
 62
     7
 10
-242.5000000000004
 20
-578.84720457049934
 30
0.0
 11
-242.5000000000004
 21
-576.15601142103435
 31
0.0
  0
ARC
  5
24A
  8
DATA
  6
CONTINUOUS
 62
     7
 10
-250.00000000000031
 20
-585.46473378082555
 30
0.0
 40
8.9647337807910432
 50
43.525881076188398
 51
136.4741189238116
  0
ARC
  5
24B
  8
DATA
  6
CONTINUOUS
 62
     7
 10
-250.00000000000031
 20
-543.25409505605603
 30
0.0
 40
33.745904943978509
 50
257.15882689183712
 51
265.51730733112532
  0
ARC
  5
24C
  8
DATA
  6
CONTINUOUS
 62
     7
 10
-250.00000000000031
 20
-543.25409505605603
 30
0.0
 40
33.745904943978651
 50
274.48269266887468
 51
282.84117310816288
  0
ARC
  5
24D
  8
DATA
  6
CONTINUOUS
 62
     7
 10
-274.49999999999972
 20
383.0
 30
0.0
 40
1.0
 50
270.0
 51
0.0
  0
ARC
  5
24E
  8
DATA
  6
CONTINUOUS
 62
     7
 10
-271.779879122907
 20
383.0
 30
0.0
 40
1.0
 50
270.0
 51
359.05725357839287
  0
ARC
  5
24F
  8
DATA
  6
CONTINUOUS
 62
     7
 10
-228.22012087709291
 20
383.0
 30
0.0
 40
1.0000000000000391
 50
180.9427464216069
 51
269.9999999999967
  0
ARC
  5
250
  8
DATA
  6
CONTINUOUS
 62
     7
 10
-225.5000000000004
 20
383.0
 30
0.0
 40
1.0
 50
180.0
 51
270.0
  0
LINE
  5
251
  8
DATA
  6
CONTINUOUS
 62
     7
 10
-257.75445169763327
 20
-559.00000000000125
 30
0.0
 11
-256.50000000000011
 21
-541.00000000000125
 31
0.0
  0
LINE
  5
252
  8
DATA
  6
CONTINUOUS
 62
     7
 10
-242.24064376803139
 20
-559.00000000000125
 30
0.0
 11
-243.50000000000011
 21
-541.00000000000125
 31
0.0
  0
LINE
  5
253
  8
DATA
  6
CONTINUOUS
 62
     7
 10
-256.50000000000011
 20
-541.00000000000125
 30
0.0
 11
-243.50000000000011
 21
-541.00000000000125
 31
0.0
  0
LINE
  5
254
  8
DATA
  6
CONTINUOUS
 62
     7
 10
-253.90000000000009
 20
-541.00000000000125
 30
0.0
 11
-253.90000000000009
 21
-476.00000000000119
 31
0.0
  0
LINE
  5
255
  8
DATA
  6
CONTINUOUS
 62
     7
 10
-246.10000000000011
 20
-476.00000000000119
 30
0.0
 11
-246.10000000000011
 21
-541.00000000000125
 31
0.0
  0
LINE
  5
256
  8
DATA
  6
CONTINUOUS
 62
     7
 10
-254.65000000000009
 20
-476.00000000000119
 30
0.0
 11
-245.35000000000011
 21
-476.00000000000119
 31
0.0
  0
LINE
  5
257
  8
DATA
  6
CONTINUOUS
 62
     7
 10
-252.90000000000009
 20
-446.00000000000119
 30
0.0
 11
-247.10000000000011
 21
-446.00000000000119
 31
0.0
  0
LINE
  5
258
  8
DATA
  6
CONTINUOUS
 62
     7
 10
-254.65000000000009
 20
-476.00000000000119
 30
0.0
 11
-254.65000000000009
 21
-462.30555311231592
 31
0.0
  0
ARC
  5
259
  8
DATA
  6
CONTINUOUS
 62
     7
 10
-53.035162137551197
 20
-476.3636305663083
 30
0.0
 40
202.1581150361028
 50
171.3616315608445
 51
175.57378918524461
  0
ARC
  5
25A
  8
DATA
  6
CONTINUOUS
 62
     7
 10
-234.64999999999469
 20
-462.30555311231592
 30
0.0
 40
20.000000000005471
 50
175.57378918524549
 51
180.0
  0
LINE
  5
25B
  8
DATA
  6
CONTINUOUS
 62
     7
 10
-245.35000000000011
 20
-476.00000000000119
 30
0.0
 11
-245.35000000000011
 21
-462.30555311231592
 31
0.0
  0
ARC
  5
25C
  8
DATA
  6
CONTINUOUS
 62
     7
 10
-446.96483786244897
 20
-476.3636305663083
 30
0.0
 40
202.1581150361028
 50
4.4262108147554029
 51
8.6383684391555366
  0
ARC
  5
25D
  8
DATA
  6
CONTINUOUS
 62
     7
 10
-265.35000000000559
 20
-462.30555311231592
 30
0.0
 40
20.00000000000545
 50
0.0
 51
4.4262108147544827
  0
LINE
  5
25E
  8
DATA
  6
CONTINUOUS
 62
     7
 10
-252.90000000000009
 20
-446.00000000000119
 30
0.0
 11
-252.9000000000002
 21
-311.7767741700244
 31
0.0
  0
LINE
  5
25F
  8
DATA
  6
CONTINUOUS
 62
     7
 10
-247.10000000000011
 20
-446.00000000000119
 30
0.0
 11
-247.10000000000011
 21
-311.81908296738641
 31
0.0
  0
ARC
  5
260
  8
DATA
  6
CONTINUOUS
 62
     7
 10
-249.9975477328324
 20
-272.06250000000119
 30
0.0
 40
7.0625
 50
352.3718503314193
 51
41.248383707404052
  0
ARC
  5
261
  8
DATA
  6
CONTINUOUS
 62
     7
 10
-249.9975477328324
 20
-272.06250000000119
 30
0.0
 40
7.0624999999999822
 50
58.501390224458603
 51
70.908382580761909
  0
ARC
  5
262
  8
DATA
  6
CONTINUOUS
 62
     7
 10
-249.9975477328324
 20
-272.06250000000119
 30
0.0
 40
7.062500000000024
 50
84.393309384884006
 51
95.606690615116435
  0
ARC
  5
263
  8
DATA
  6
CONTINUOUS
 62
     7
 10
-249.9975477328324
 20
-272.06250000000119
 30
0.0
 40
7.0625000000000329
 50
109.0916174192389
 51
121.49860977554221
  0
ARC
  5
264
  8
DATA
  6
CONTINUOUS
 62
     7
 10
-249.9975477328324
 20
-272.06250000000119
 30
0.0
 40
7.062500000000016
 50
138.75161629259651
 51
187.6281496685807
  0
LINE
  5
265
  8
DATA
  6
CONTINUOUS
 62
     7
 10
-256.9975477328324
 20
-273.00000000000119
 30
0.0
 11
-242.9975477328324
 21
-273.00000000000119
 31
0.0
  0
ARC
  5
266
  8
DATA
  6
CONTINUOUS
 62
     7
 10
-412.69101557211991
 20
-301.47092360874677
 30
0.0
 40
158.27523311926689
 50
4.9243864255454843
 51
10.36290810698438
  0
LINE
  5
267
  8
DATA
  6
CONTINUOUS
 62
     7
 10
-253.5652025408603
 20
-300.26165307853557
 30
0.0
 11
-255.00000000003769
 21
-287.88442196911888
 31
0.0
  0
ARC
  5
268
  8
DATA
  6
CONTINUOUS
 62
     7
 10
-87.304079893544866
 20
-301.47092360874677
 30
0.0
 40
158.27523311926689
 50
169.63709189301559
 51
175.07561357445451
  0
LINE
  5
269
  8
DATA
  6
CONTINUOUS
 62
     7
 10
-246.4347974591401
 20
-300.3039618758977
 30
0.0
 11
-244.995095465627
 21
-287.88442196911888
 31
0.0
  0
ARC
  5
26A
  8
DATA
  6
CONTINUOUS
 62
     7
 10
-352.9000000000002
 20
-311.77677417002451
 30
0.0
 40
100.0
 50
0.0000000000000568
 51
6.612346736455776
  0
ARC
  5
26B
  8
DATA
  6
CONTINUOUS
 62
     7
 10
-147.10000000000011
 20
-311.81908296738652
 30
0.0
 40
100.0
 50
173.38765326354419
 51
179.99999999999989
  0
LINE
  5
26C
  8
DATA
  6
CONTINUOUS
 62
     7
 10
-252.3075477328324
 20
-270.50000000000119
 30
0.0
 11
-250.6875477328324
 21
-270.50000000000119
 31
0.0
  0
LINE
  5
26D
  8
DATA
  6
CONTINUOUS
 62
     7
 10
-249.30754773283229
 20
-270.50000000000119
 30
0.0
 11
-247.6875477328324
 21
-270.50000000000119
 31
0.0
  0
LINE
  5
26E
  8
DATA
  6
CONTINUOUS
 62
     7
 10
-250.6875477328324
 20
-270.50000000000119
 30
0.0
 11
-250.6875477328324
 21
-265.03378701325892
 31
0.0
  0
LINE
  5
26F
  8
DATA
  6
CONTINUOUS
 62
     7
 10
-249.3075477328324
 20
-265.03378701325892
 30
0.0
 11
-249.3075477328324
 21
-270.50000000000131
 31
0.0
  0
LINE
  5
270
  8
DATA
  6
CONTINUOUS
 62
     7
 10
-247.6875477328324
 20
-270.50000000000119
 30
0.0
 11
-247.6875477328324
 21
-265.38846027506708
 31
0.0
  0
LINE
  5
271
  8
DATA
  6
CONTINUOUS
 62
     7
 10
-246.3075477328324
 20
-266.04063930333939
 30
0.0
 11
-246.3075477328324
 21
-270.50000000000131
 31
0.0
  0
LINE
  5
272
  8
DATA
  6
CONTINUOUS
 62
     7
 10
-244.6875477328324
 20
-268.4142180632108
 30
0.0
 11
-244.6875477328324
 21
-267.4060199721261
 31
0.0
  0
LINE
  5
273
  8
DATA
  6
CONTINUOUS
 62
     7
 10
-253.6875477328324
 20
-270.50000000000119
 30
0.0
 11
-253.6875477328324
 21
-266.04063930333939
 31
0.0
  0
LINE
  5
274
  8
DATA
  6
CONTINUOUS
 62
     7
 10
-252.3075477328324
 20
-265.38846027506708
 30
0.0
 11
-252.3075477328324
 21
-270.50000000000131
 31
0.0
  0
LINE
  5
275
  8
DATA
  6
CONTINUOUS
 62
     7
 10
-255.3075477328324
 20
-267.40601997212622
 30
0.0
 11
-255.3075477328324
 21
-268.4142180632108
 31
0.0
  0
ARC
  5
276
  8
DATA
  6
CONTINUOUS
 62
     7
 10
-249.9975477328324
 20
-272.07918867758031
 30
0.0
 40
6.451984935211069
 50
34.61350091417782
 51
55.115986107637482
  0
ARC
  5
277
  8
DATA
  6
CONTINUOUS
 62
     7
 10
-249.9975477328324
 20
-272.07918867758031
 30
0.0
 40
6.4519849352110601
 50
69.020778854025437
 51
83.860829308006004
  0
ARC
  5
278
  8
DATA
  6
CONTINUOUS
 62
     7
 10
-249.9975477328324
 20
-272.07918867758031
 30
0.0
 40
6.4519849352110761
 50
96.139170691994522
 51
110.9792211459755
  0
ARC
  5
279
  8
DATA
  6
CONTINUOUS
 62
     7
 10
-249.9975477328324
 20
-272.07918867758031
 30
0.0
 40
6.4519849352111134
 50
124.8840138923633
 51
145.38649908582269
  0
LINE
  5
27A
  8
DATA
  6
CONTINUOUS
 62
     7
 10
-255.3075477328324
 20
-268.4142180632108
 30
0.0
 11
-255.3075477328324
 21
-270.50000000000131
 31
0.0
  0
LINE
  5
27B
  8
DATA
  6
CONTINUOUS
 62
     7
 10
-244.6875477328324
 20
-268.4142180632108
 30
0.0
 11
-244.6875477328324
 21
-270.50000000000142
 31
0.0
  0
LINE
  5
27C
  8
DATA
  6
CONTINUOUS
 62
     7
 10
-253.6875477328324
 20
-270.50000000000119
 30
0.0
 11
-255.3075477328324
 21
-270.50000000000119
 31
0.0
  0
LINE
  5
27D
  8
DATA
  6
CONTINUOUS
 62
     7
 10
-246.3075477328324
 20
-270.50000000000131
 30
0.0
 11
-244.6875477328324
 21
-270.50000000000131
 31
0.0
  0
LINE
  5
27E
  8
DATA
  6
CONTINUOUS
 62
     7
 10
-255.46572955126419
 20
-278.00000000000131
 30
0.0
 11
-251.0975477328324
 21
-278.00000000000131
 31
0.0
  0
LINE
  5
27F
  8
DATA
  6
CONTINUOUS
 62
     7
 10
-248.89754773283229
 20
-278.00000000000131
 30
0.0
 11
-244.52936591440061
 21
-278.00000000000131
 31
0.0
  0
LINE
  5
280
  8
DATA
  6
CONTINUOUS
 62
     7
 10
-248.89754773283241
 20
-278.00000000000131
 30
0.0
 11
-248.89754773283241
 21
-278.80000000000132
 31
0.0
  0
LINE
  5
281
  8
DATA
  6
CONTINUOUS
 62
     7
 10
-248.89754773283241
 20
-279.60000000000127
 30
0.0
 11
-248.89754773283241
 21
-280.40000000000128
 31
0.0
  0
LINE
  5
282
  8
DATA
  6
CONTINUOUS
 62
     7
 10
-248.89754773283241
 20
-281.20000000000118
 30
0.0
 11
-248.89754773283241
 21
-282.00000000000131
 31
0.0
  0
LINE
  5
283
  8
DATA
  6
CONTINUOUS
 62
     7
 10
-251.0975477328324
 20
-282.00000000000131
 30
0.0
 11
-251.0975477328324
 21
-281.20000000000118
 31
0.0
  0
LINE
  5
284
  8
DATA
  6
CONTINUOUS
 62
     7
 10
-251.0975477328324
 20
-280.40000000000128
 30
0.0
 11
-251.0975477328324
 21
-279.60000000000127
 31
0.0
  0
LINE
  5
285
  8
DATA
  6
CONTINUOUS
 62
     7
 10
-251.0975477328324
 20
-278.80000000000132
 30
0.0
 11
-251.0975477328324
 21
-278.00000000000131
 31
0.0
  0
LINE
  5
286
  8
DATA
  6
CONTINUOUS
 62
     7
 10
-255.34785855054841
 20
-278.80000000000132
 30
0.0
 11
-251.0975477328324
 21
-278.80000000000132
 31
0.0
  0
LINE
  5
287
  8
DATA
  6
CONTINUOUS
 62
     7
 10
-248.89754773283229
 20
-278.80000000000132
 30
0.0
 11
-244.64723691511639
 21
-278.80000000000132
 31
0.0
  0
LINE
  5
288
  8
DATA
  6
CONTINUOUS
 62
     7
 10
-255.23415888170689
 20
-279.60000000000127
 30
0.0
 11
-251.0975477328324
 21
-279.60000000000127
 31
0.0
  0
LINE
  5
289
  8
DATA
  6
CONTINUOUS
 62
     7
 10
-248.89754773283229
 20
-279.60000000000127
 30
0.0
 11
-244.76093658395791
 21
-279.60000000000127
 31
0.0
  0
LINE
  5
28A
  8
DATA
  6
CONTINUOUS
 62
     7
 10
-255.12462147436329
 20
-280.40000000000128
 30
0.0
 11
-251.0975477328324
 21
-280.40000000000128
 31
0.0
  0
LINE
  5
28B
  8
DATA
  6
CONTINUOUS
 62
     7
 10
-248.89754773283229
 20
-280.40000000000128
 30
0.0
 11
-244.8704739913014
 21
-280.40000000000128
 31
0.0
  0
LINE
  5
28C
  8
DATA
  6
CONTINUOUS
 62
     7
 10
-255.0192376150404
 20
-281.20000000000118
 30
0.0
 11
-251.0975477328324
 21
-281.20000000000118
 31
0.0
  0
LINE
  5
28D
  8
DATA
  6
CONTINUOUS
 62
     7
 10
-248.89754773283229
 20
-281.20000000000118
 30
0.0
 11
-244.97585785062441
 21
-281.20000000000118
 31
0.0
  0
LINE
  5
28E
  8
DATA
  6
CONTINUOUS
 62
     7
 10
-254.91799894360841
 20
-282.00000000000131
 30
0.0
 11
-251.0975477328324
 21
-282.00000000000131
 31
0.0
  0
LINE
  5
28F
  8
DATA
  6
CONTINUOUS
 62
     7
 10
-248.89754773283229
 20
-282.00000000000131
 30
0.0
 11
-245.07709652205639
 21
-282.00000000000131
 31
0.0
  0
ARC
  5
290
  8
DATA
  6
CONTINUOUS
 62
     7
 10
-411.99101557211992
 20
-301.47092360874677
 30
0.0
 40
158.27523311926689
 50
7.0663927544996721
 51
7.3583034962292748
  0
ARC
  5
291
  8
DATA
  6
CONTINUOUS
 62
     7
 10
-411.99101557211992
 20
-301.47092360874677
 30
0.0
 40
158.27523311926689
 50
7.6504064232326607
 51
7.9427095230826099
  0
ARC
  5
292
  8
DATA
  6
CONTINUOUS
 62
     7
 10
-411.99101557211992
 20
-301.47092360874677
 30
0.0
 40
158.2752331192668
 50
8.2352208316215236
 51
8.5279484350857793
  0
ARC
  5
293
  8
DATA
  6
CONTINUOUS
 62
     7
 10
-88.004079893544869
 20
-301.47092360874677
 30
0.0
 40
158.27523311926689
 50
171.4720515649143
 51
171.7647791683786
  0
ARC
  5
294
  8
DATA
  6
CONTINUOUS
 62
     7
 10
-88.004079893544869
 20
-301.47092360874677
 30
0.0
 40
158.27523311926689
 50
172.0572904769175
 51
172.3495935767674
  0
ARC
  5
295
  8
DATA
  6
CONTINUOUS
 62
     7
 10
-88.004079893544869
 20
-301.47092360874677
 30
0.0
 40
158.27523311926689
 50
172.6416965037709
 51
172.93360724550041
  0
LINE
  5
296
  8
DATA
  6
CONTINUOUS
 62
     7
 10
-252.9000000000002
 20
-311.7767741700244
 30
0.0
 11
-247.09999104982811
 21
-311.7767741700244
 31
0.0
  0
LINE
  5
297
  8
DATA
  6
CONTINUOUS
 62
     7
 10
-255.3075477328324
 20
-270.50000000000131
 30
0.0
 11
-253.6875477328324
 21
-268.8800000000013
 31
0.0
  0
LINE
  5
298
  8
DATA
  6
CONTINUOUS
 62
     7
 10
-252.3075477328324
 20
-267.50000000000131
 30
0.0
 11
-250.6875477328324
 21
-265.88000000000142
 31
0.0
  0
LINE
  5
299
  8
DATA
  6
CONTINUOUS
 62
     7
 10
-255.3075477328324
 20
-269.69999998808038
 30
0.0
 11
-253.6875477328324
 21
-268.07999998808037
 31
0.0
  0
LINE
  5
29A
  8
DATA
  6
CONTINUOUS
 62
     7
 10
-252.3075477328324
 20
-266.69999998808038
 30
0.0
 11
-251.3858951180093
 21
-265.77834737325719
 31
0.0
  0
LINE
  5
29B
  8
DATA
  6
CONTINUOUS
 62
     7
 10
-255.3075477328324
 20
-268.89999997615951
 30
0.0
 11
-253.6875477328324
 21
-267.2799999761595
 31
0.0
  0
LINE
  5
29C
  8
DATA
  6
CONTINUOUS
 62
     7
 10
-254.50754773283239
 20
-270.50000000000119
 30
0.0
 11
-253.6875477328324
 21
-269.68000000000131
 31
0.0
  0
LINE
  5
29D
  8
DATA
  6
CONTINUOUS
 62
     7
 10
-252.3075477328324
 20
-268.30000000000132
 30
0.0
 11
-250.6875477328324
 21
-266.68000000000131
 31
0.0
  0
LINE
  5
29E
  8
DATA
  6
CONTINUOUS
 62
     7
 10
-252.3075477328324
 20
-269.10000000000127
 30
0.0
 11
-250.6875477328324
 21
-267.48000000000133
 31
0.0
  0
LINE
  5
29F
  8
DATA
  6
CONTINUOUS
 62
     7
 10
-249.3075477328324
 20
-266.10000000000127
 30
0.0
 11
-248.9245923967234
 21
-265.7170446638923
 31
0.0
  0
LINE
  5
2A0
  8
DATA
  6
CONTINUOUS
 62
     7
 10
-252.3075477328324
 20
-269.90000000000128
 30
0.0
 11
-250.6875477328324
 21
-268.28000000000128
 31
0.0
  0
LINE
  5
2A1
  8
DATA
  6
CONTINUOUS
 62
     7
 10
-249.3075477328324
 20
-266.90000000000128
 30
0.0
 11
-248.27025951339209
 21
-265.86271178056109
 31
0.0
  0
LINE
  5
2A2
  8
DATA
  6
CONTINUOUS
 62
     7
 10
-252.10754773283239
 20
-270.50000000000119
 30
0.0
 11
-250.6875477328324
 21
-269.08000000000129
 31
0.0
  0
LINE
  5
2A3
  8
DATA
  6
CONTINUOUS
 62
     7
 10
-249.3075477328324
 20
-267.7000000000013
 30
0.0
 11
-247.6875477328324
 21
-266.08000000000129
 31
0.0
  0
LINE
  5
2A4
  8
DATA
  6
CONTINUOUS
 62
     7
 10
-251.3075477328324
 20
-270.50000000000131
 30
0.0
 11
-250.6875477328324
 21
-269.8800000000013
 31
0.0
  0
LINE
  5
2A5
  8
DATA
  6
CONTINUOUS
 62
     7
 10
-249.30754773283229
 20
-268.50000000000119
 30
0.0
 11
-247.6875477328324
 21
-266.8800000000013
 31
0.0
  0
LINE
  5
2A6
  8
DATA
  6
CONTINUOUS
 62
     7
 10
-249.3075477328324
 20
-269.30000000000132
 30
0.0
 11
-247.6875477328324
 21
-267.68000000000131
 31
0.0
  0
LINE
  5
2A7
  8
DATA
  6
CONTINUOUS
 62
     7
 10
-249.3075477328324
 20
-270.10000000000127
 30
0.0
 11
-247.6875477328324
 21
-268.48000000000133
 31
0.0
  0
LINE
  5
2A8
  8
DATA
  6
CONTINUOUS
 62
     7
 10
-246.3075477328324
 20
-267.10000000000127
 30
0.0
 11
-246.125666350388
 21
-266.91811861755679
 31
0.0
  0
LINE
  5
2A9
  8
DATA
  6
CONTINUOUS
 62
     7
 10
-248.9075477328324
 20
-270.50000000000131
 30
0.0
 11
-247.6875477328324
 21
-269.28000000000128
 31
0.0
  0
LINE
  5
2AA
  8
DATA
  6
CONTINUOUS
 62
     7
 10
-246.3075477328324
 20
-267.90000000000128
 30
0.0
 11
-245.68646117722989
 21
-267.27891344439888
 31
0.0
  0
LINE
  5
2AB
  8
DATA
  6
CONTINUOUS
 62
     7
 10
-248.10754773283239
 20
-270.50000000000131
 30
0.0
 11
-247.6875477328324
 21
-270.08000000000129
 31
0.0
  0
LINE
  5
2AC
  8
DATA
  6
CONTINUOUS
 62
     7
 10
-246.3075477328324
 20
-268.7000000000013
 30
0.0
 11
-245.28254736566839
 21
-267.67499963283728
 31
0.0
  0
LINE
  5
2AD
  8
DATA
  6
CONTINUOUS
 62
     7
 10
-246.3075477328324
 20
-269.50000000000142
 30
0.0
 11
-244.9138334079384
 21
-268.1062856751073
 31
0.0
  0
LINE
  5
2AE
  8
DATA
  6
CONTINUOUS
 62
     7
 10
-246.3075477328324
 20
-270.30000000000132
 30
0.0
 11
-244.68754773283229
 21
-268.68000000000131
 31
0.0
  0
LINE
  5
2AF
  8
DATA
  6
CONTINUOUS
 62
     7
 10
-245.70754773283241
 20
-270.50000000000119
 30
0.0
 11
-244.6875477328324
 21
-269.48000000000133
 31
0.0
  0
LINE
  5
2B0
  8
DATA
  6
CONTINUOUS
 62
     7
 10
-253.74956279837031
 20
-270.50000000000119
 30
0.0
 11
-255.3075477328324
 21
-268.94201506553912
 31
0.0
  0
LINE
  5
2B1
  8
DATA
  6
CONTINUOUS
 62
     7
 10
-253.6875477328324
 20
-269.762015065539
 30
0.0
 11
-255.19427042054119
 21
-268.25529237783019
 31
0.0
  0
LINE
  5
2B2
  8
DATA
  6
CONTINUOUS
 62
     7
 10
-252.1495627983702
 20
-270.50000000000131
 30
0.0
 11
-252.3075477328324
 21
-270.34201506553899
 31
0.0
  0
LINE
  5
2B3
  8
DATA
  6
CONTINUOUS
 62
     7
 10
-253.6875477328324
 20
-268.96201506553911
 30
0.0
 11
-254.8372039781336
 21
-267.81235882023799
 31
0.0
  0
LINE
  5
2B4
  8
DATA
  6
CONTINUOUS
 62
     7
 10
-251.34956279837019
 20
-270.50000000000119
 30
0.0
 11
-252.3075477328324
 21
-269.54201506553909
 31
0.0
  0
LINE
  5
2B5
  8
DATA
  6
CONTINUOUS
 62
     7
 10
-253.6875477328324
 20
-268.16201506553909
 30
0.0
 11
-254.44478901385841
 21
-267.404773784513
 31
0.0
  0
LINE
  5
2B6
  8
DATA
  6
CONTINUOUS
 62
     7
 10
-250.6875477328324
 20
-270.36201506553908
 30
0.0
 11
-252.3075477328324
 21
-268.74201506553908
 31
0.0
  0
LINE
  5
2B7
  8
DATA
  6
CONTINUOUS
 62
     7
 10
-253.6875477328324
 20
-267.3620150655392
 30
0.0
 11
-254.01720296698321
 21
-267.03235983138831
 31
0.0
  0
LINE
  5
2B8
  8
DATA
  6
CONTINUOUS
 62
     7
 10
-250.6875477328324
 20
-269.56201506553919
 30
0.0
 11
-252.3075477328324
 21
-267.94201506553912
 31
0.0
  0
LINE
  5
2B9
  8
DATA
  6
CONTINUOUS
 62
     7
 10
-248.9495627983701
 20
-270.50000000000119
 30
0.0
 11
-249.3075477328324
 21
-270.14201506553911
 31
0.0
  0
LINE
  5
2BA
  8
DATA
  6
CONTINUOUS
 62
     7
 10
-250.6875477328324
 20
-268.76201506553912
 30
0.0
 11
-252.3075477328324
 21
-267.14201506553911
 31
0.0
  0
LINE
  5
2BB
  8
DATA
  6
CONTINUOUS
 62
     7
 10
-248.1495627983702
 20
-270.50000000000131
 30
0.0
 11
-249.3075477328324
 21
-269.3420150655391
 31
0.0
  0
LINE
  5
2BC
  8
DATA
  6
CONTINUOUS
 62
     7
 10
-250.6875477328324
 20
-267.96201506553911
 30
0.0
 11
-252.3075477328324
 21
-266.34201506553899
 31
0.0
  0
LINE
  5
2BD
  8
DATA
  6
CONTINUOUS
 62
     7
 10
-247.6875477328324
 20
-270.16201506553909
 30
0.0
 11
-249.30754773283229
 21
-268.54201506553909
 31
0.0
  0
LINE
  5
2BE
  8
DATA
  6
CONTINUOUS
 62
     7
 10
-250.6875477328324
 20
-267.16201506553909
 30
0.0
 11
-251.92707923023929
 21
-265.92248356813218
 31
0.0
  0
LINE
  5
2BF
  8
DATA
  6
CONTINUOUS
 62
     7
 10
-247.6875477328324
 20
-269.36201506553908
 30
0.0
 11
-249.3075477328324
 21
-267.74201506553919
 31
0.0
  0
LINE
  5
2C0
  8
DATA
  6
CONTINUOUS
 62
     7
 10
-250.6875477328324
 20
-266.3620150655392
 30
0.0
 11
-251.29131383542091
 21
-265.75824896295057
 31
0.0
  0
LINE
  5
2C1
  8
DATA
  6
CONTINUOUS
 62
     7
 10
-245.74956279837011
 20
-270.50000000000142
 30
0.0
 11
-246.3075477328324
 21
-269.94201506553912
 31
0.0
  0
LINE
  5
2C2
  8
DATA
  6
CONTINUOUS
 62
     7
 10
-247.6875477328324
 20
-268.56201506553907
 30
0.0
 11
-249.3075477328324
 21
-266.94201506553901
 31
0.0
  0
LINE
  5
2C3
  8
DATA
  6
CONTINUOUS
 62
     7
 10
-247.6875477328324
 20
-267.76201506553912
 30
0.0
 11
-249.30754773283229
 21
-266.14201506553911
 31
0.0
  0
LINE
  5
2C4
  8
DATA
  6
CONTINUOUS
 62
     7
 10
-244.68754773283229
 20
-269.96201506553922
 30
0.0
 11
-246.3075477328324
 21
-268.34201506553921
 31
0.0
  0
LINE
  5
2C5
  8
DATA
  6
CONTINUOUS
 62
     7
 10
-247.6875477328324
 20
-266.96201506553911
 30
0.0
 11
-248.9341171177268
 21
-265.71544568064479
 31
0.0
  0
LINE
  5
2C6
  8
DATA
  6
CONTINUOUS
 62
     7
 10
-244.6875477328324
 20
-269.16201506553909
 30
0.0
 11
-246.3075477328324
 21
-267.54201506553909
 31
0.0
  0
LINE
  5
2C7
  8
DATA
  6
CONTINUOUS
 62
     7
 10
-247.6875477328324
 20
-266.16201506553909
 30
0.0
 11
-247.8568923476748
 21
-265.99267045069661
 31
0.0
  0
LINE
  5
2C8
  8
DATA
  6
CONTINUOUS
 62
     7
 10
-246.3075477328324
 20
-269.16580778376238
 30
0.0
 11
-244.97335551659339
 21
-270.50000000000131
 31
0.0
  0
LINE
  5
2C9
  8
DATA
  6
CONTINUOUS
 62
     7
 10
-253.90000000000009
 20
-541.00000000000125
 30
0.0
 11
-246.10000000000011
 21
-539.2402439022502
 31
0.0
  0
LINE
  5
2CA
  8
DATA
  6
CONTINUOUS
 62
     7
 10
-253.90000000000009
 20
-539.00000000000125
 30
0.0
 11
-246.10000000000011
 21
-537.2402439022502
 31
0.0
  0
LINE
  5
2CB
  8
DATA
  6
CONTINUOUS
 62
     7
 10
-253.90000000000009
 20
-538.20000000000118
 30
0.0
 11
-246.10000000000011
 21
-536.44024390225002
 31
0.0
  0
LINE
  5
2CC
  8
DATA
  6
CONTINUOUS
 62
     7
 10
-253.90000000000009
 20
-536.20000000000107
 30
0.0
 11
-246.10000000000011
 21
-534.44024390225002
 31
0.0
  0
LINE
  5
2CD
  8
DATA
  6
CONTINUOUS
 62
     7
 10
-253.90000000000009
 20
-535.40000000000123
 30
0.0
 11
-246.10000000000011
 21
-533.64024390225006
 31
0.0
  0
LINE
  5
2CE
  8
DATA
  6
CONTINUOUS
 62
     7
 10
-253.90000000000009
 20
-533.40000000000123
 30
0.0
 11
-246.10000000000011
 21
-531.64024390225006
 31
0.0
  0
LINE
  5
2CF
  8
DATA
  6
CONTINUOUS
 62
     7
 10
-253.90000000000009
 20
-532.60000000000116
 30
0.0
 11
-246.10000000000011
 21
-530.84024390225011
 31
0.0
  0
LINE
  5
2D0
  8
DATA
  6
CONTINUOUS
 62
     7
 10
-253.90000000000009
 20
-530.60000000000116
 30
0.0
 11
-246.10000000000011
 21
-528.84024390225022
 31
0.0
  0
LINE
  5
2D1
  8
DATA
  6
CONTINUOUS
 62
     7
 10
-253.90000000000009
 20
-529.80000000000121
 30
0.0
 11
-246.10000000000011
 21
-528.04024390225015
 31
0.0
  0
LINE
  5
2D2
  8
DATA
  6
CONTINUOUS
 62
     7
 10
-253.90000000000009
 20
-527.80000000000121
 30
0.0
 11
-246.10000000000011
 21
-526.04024390225015
 31
0.0
  0
LINE
  5
2D3
  8
DATA
  6
CONTINUOUS
 62
     7
 10
-253.90000000000009
 20
-527.00000000000125
 30
0.0
 11
-246.10000000000011
 21
-525.24024390225009
 31
0.0
  0
LINE
  5
2D4
  8
DATA
  6
CONTINUOUS
 62
     7
 10
-253.90000000000009
 20
-525.00000000000125
 30
0.0
 11
-246.10000000000011
 21
-523.2402439022502
 31
0.0
  0
LINE
  5
2D5
  8
DATA
  6
CONTINUOUS
 62
     7
 10
-253.90000000000009
 20
-524.20000000000107
 30
0.0
 11
-246.10000000000011
 21
-522.44024390225002
 31
0.0
  0
LINE
  5
2D6
  8
DATA
  6
CONTINUOUS
 62
     7
 10
-253.90000000000009
 20
-522.20000000000107
 30
0.0
 11
-246.10000000000011
 21
-520.44024390225002
 31
0.0
  0
LINE
  5
2D7
  8
DATA
  6
CONTINUOUS
 62
     7
 10
-253.90000000000009
 20
-521.40000000000111
 30
0.0
 11
-246.10000000000011
 21
-519.64024390225006
 31
0.0
  0
LINE
  5
2D8
  8
DATA
  6
CONTINUOUS
 62
     7
 10
-253.90000000000009
 20
-519.40000000000123
 30
0.0
 11
-246.10000000000011
 21
-517.64024390225018
 31
0.0
  0
LINE
  5
2D9
  8
DATA
  6
CONTINUOUS
 62
     7
 10
-253.90000000000009
 20
-518.60000000000127
 30
0.0
 11
-246.10000000000011
 21
-516.84024390225022
 31
0.0
  0
LINE
  5
2DA
  8
DATA
  6
CONTINUOUS
 62
     7
 10
-253.90000000000009
 20
-516.60000000000116
 30
0.0
 11
-246.10000000000011
 21
-514.84024390225022
 31
0.0
  0
LINE
  5
2DB
  8
DATA
  6
CONTINUOUS
 62
     7
 10
-253.90000000000009
 20
-515.80000000000109
 30
0.0
 11
-246.10000000000011
 21
-514.04024390225015
 31
0.0
  0
LINE
  5
2DC
  8
DATA
  6
CONTINUOUS
 62
     7
 10
-253.90000000000009
 20
-513.80000000000121
 30
0.0
 11
-246.10000000000011
 21
-512.04024390225027
 31
0.0
  0
LINE
  5
2DD
  8
DATA
  6
CONTINUOUS
 62
     7
 10
-253.90000000000009
 20
-513.00000000000125
 30
0.0
 11
-246.10000000000011
 21
-511.2402439022502
 31
0.0
  0
LINE
  5
2DE
  8
DATA
  6
CONTINUOUS
 62
     7
 10
-253.90000000000009
 20
-511.00000000000108
 30
0.0
 11
-246.10000000000011
 21
-509.24024390225009
 31
0.0
  0
LINE
  5
2DF
  8
DATA
  6
CONTINUOUS
 62
     7
 10
-253.90000000000009
 20
-510.20000000000118
 30
0.0
 11
-246.10000000000011
 21
-508.44024390225002
 31
0.0
  0
LINE
  5
2E0
  8
DATA
  6
CONTINUOUS
 62
     7
 10
-253.90000000000009
 20
-508.20000000000118
 30
0.0
 11
-246.10000000000011
 21
-506.44024390225002
 31
0.0
  0
LINE
  5
2E1
  8
DATA
  6
CONTINUOUS
 62
     7
 10
-253.90000000000009
 20
-507.40000000000123
 30
0.0
 11
-246.10000000000011
 21
-505.64024390225018
 31
0.0
  0
LINE
  5
2E2
  8
DATA
  6
CONTINUOUS
 62
     7
 10
-253.90000000000009
 20
-505.40000000000123
 30
0.0
 11
-246.10000000000011
 21
-503.64024390225018
 31
0.0
  0
LINE
  5
2E3
  8
DATA
  6
CONTINUOUS
 62
     7
 10
-253.90000000000009
 20
-504.60000000000122
 30
0.0
 11
-246.10000000000011
 21
-502.84024390225022
 31
0.0
  0
LINE
  5
2E4
  8
DATA
  6
CONTINUOUS
 62
     7
 10
-253.90000000000009
 20
-502.60000000000122
 30
0.0
 11
-246.10000000000011
 21
-500.84024390225022
 31
0.0
  0
LINE
  5
2E5
  8
DATA
  6
CONTINUOUS
 62
     7
 10
-253.90000000000009
 20
-501.80000000000121
 30
0.0
 11
-246.10000000000011
 21
-500.04024390225032
 31
0.0
  0
LINE
  5
2E6
  8
DATA
  6
CONTINUOUS
 62
     7
 10
-253.90000000000009
 20
-499.80000000000109
 30
0.0
 11
-246.10000000000011
 21
-498.04024390225021
 31
0.0
  0
LINE
  5
2E7
  8
DATA
  6
CONTINUOUS
 62
     7
 10
-253.90000000000009
 20
-499.00000000000108
 30
0.0
 11
-246.10000000000011
 21
-497.24024390225009
 31
0.0
  0
LINE
  5
2E8
  8
DATA
  6
CONTINUOUS
 62
     7
 10
-253.90000000000009
 20
-497.00000000000119
 30
0.0
 11
-246.10000000000011
 21
-495.2402439022502
 31
0.0
  0
LINE
  5
2E9
  8
DATA
  6
CONTINUOUS
 62
     7
 10
-253.90000000000009
 20
-496.20000000000118
 30
0.0
 11
-246.10000000000011
 21
-494.44024390225007
 31
0.0
  0
LINE
  5
2EA
  8
DATA
  6
CONTINUOUS
 62
     7
 10
-253.90000000000009
 20
-494.20000000000118
 30
0.0
 11
-246.10000000000011
 21
-492.44024390225002
 31
0.0
  0
LINE
  5
2EB
  8
DATA
  6
CONTINUOUS
 62
     7
 10
-253.90000000000009
 20
-493.40000000000123
 30
0.0
 11
-246.10000000000011
 21
-491.64024390225018
 31
0.0
  0
LINE
  5
2EC
  8
DATA
  6
CONTINUOUS
 62
     7
 10
-253.90000000000009
 20
-491.40000000000123
 30
0.0
 11
-246.10000000000011
 21
-489.64024390225018
 31
0.0
  0
LINE
  5
2ED
  8
DATA
  6
CONTINUOUS
 62
     7
 10
-253.90000000000009
 20
-490.60000000000122
 30
0.0
 11
-246.10000000000011
 21
-488.84024390225022
 31
0.0
  0
LINE
  5
2EE
  8
DATA
  6
CONTINUOUS
 62
     7
 10
-253.90000000000009
 20
-488.60000000000122
 30
0.0
 11
-246.10000000000011
 21
-486.84024390225022
 31
0.0
  0
LINE
  5
2EF
  8
DATA
  6
CONTINUOUS
 62
     7
 10
-253.90000000000009
 20
-487.80000000000121
 30
0.0
 11
-246.10000000000011
 21
-486.04024390225021
 31
0.0
  0
LINE
  5
2F0
  8
DATA
  6
CONTINUOUS
 62
     7
 10
-253.90000000000009
 20
-485.80000000000121
 30
0.0
 11
-246.10000000000011
 21
-484.04024390225021
 31
0.0
  0
LINE
  5
2F1
  8
DATA
  6
CONTINUOUS
 62
     7
 10
-253.90000000000009
 20
-485.00000000000119
 30
0.0
 11
-246.10000000000011
 21
-483.24024390225009
 31
0.0
  0
LINE
  5
2F2
  8
DATA
  6
CONTINUOUS
 62
     7
 10
-253.90000000000009
 20
-483.00000000000108
 30
0.0
 11
-246.10000000000011
 21
-481.2402439022502
 31
0.0
  0
LINE
  5
2F3
  8
DATA
  6
CONTINUOUS
 62
     7
 10
-253.90000000000009
 20
-482.20000000000118
 30
0.0
 11
-246.10000000000011
 21
-480.44024390225002
 31
0.0
  0
LINE
  5
2F4
  8
DATA
  6
CONTINUOUS
 62
     7
 10
-253.90000000000009
 20
-480.20000000000118
 30
0.0
 11
-246.10000000000011
 21
-478.44024390225007
 31
0.0
  0
LINE
  5
2F5
  8
DATA
  6
CONTINUOUS
 62
     7
 10
-253.90000000000009
 20
-479.40000000000123
 30
0.0
 11
-246.10000000000011
 21
-477.64024390225018
 31
0.0
  0
LINE
  5
2F6
  8
DATA
  6
CONTINUOUS
 62
     7
 10
-253.90000000000009
 20
-477.40000000000123
 30
0.0
 11
-247.6945945952651
 21
-476.00000000000119
 31
0.0
  0
LINE
  5
2F7
  8
DATA
  6
CONTINUOUS
 62
     7
 10
-253.90000000000009
 20
-476.60000000000122
 30
0.0
 11
-251.24054054082811
 21
-476.00000000000119
 31
0.0
  0
LINE
  5
2F8
  8
DATA
  6
CONTINUOUS
 62
     7
 10
-257.75445169763327
 20
358.99999999999511
 30
0.0
 11
-256.50000000000011
 21
340.99999999999511
 31
0.0
  0
LINE
  5
2F9
  8
DATA
  6
CONTINUOUS
 62
     7
 10
-242.24064376803139
 20
358.99999999999511
 30
0.0
 11
-243.50000000000011
 21
340.99999999999511
 31
0.0
  0
LINE
  5
2FA
  8
DATA
  6
CONTINUOUS
 62
     7
 10
-256.50000000000011
 20
340.99999999999511
 30
0.0
 11
-243.50000000000011
 21
340.99999999999511
 31
0.0
  0
LINE
  5
2FB
  8
DATA
  6
CONTINUOUS
 62
     7
 10
-253.90000000000009
 20
340.99999999999511
 30
0.0
 11
-253.90000000000009
 21
275.99999999999511
 31
0.0
  0
LINE
  5
2FC
  8
DATA
  6
CONTINUOUS
 62
     7
 10
-246.10000000000011
 20
275.99999999999511
 30
0.0
 11
-246.10000000000011
 21
340.99999999999511
 31
0.0
  0
LINE
  5
2FD
  8
DATA
  6
CONTINUOUS
 62
     7
 10
-254.65000000000009
 20
275.99999999999511
 30
0.0
 11
-245.35000000000011
 21
275.99999999999511
 31
0.0
  0
LINE
  5
2FE
  8
DATA
  6
CONTINUOUS
 62
     7
 10
-252.90000000000009
 20
245.99999999999449
 30
0.0
 11
-247.10000000000011
 21
245.99999999999449
 31
0.0
  0
LINE
  5
2FF
  8
DATA
  6
CONTINUOUS
 62
     7
 10
-254.65000000000009
 20
275.99999999999511
 30
0.0
 11
-254.65000000000009
 21
262.30555311230961
 31
0.0
  0
ARC
  5
300
  8
DATA
  6
CONTINUOUS
 62
     7
 10
-53.035162137551197
 20
276.36363056630228
 30
0.0
 40
202.1581150361028
 50
184.42621081475531
 51
188.6383684391557
  0
ARC
  5
301
  8
DATA
  6
CONTINUOUS
 62
     7
 10
-234.64999999999469
 20
262.30555311230961
 30
0.0
 40
20.00000000000545
 50
180.0
 51
184.42621081475411
  0
LINE
  5
302
  8
DATA
  6
CONTINUOUS
 62
     7
 10
-245.35000000000011
 20
275.99999999999511
 30
0.0
 11
-245.35000000000011
 21
262.30555311230961
 31
0.0
  0
ARC
  5
303
  8
DATA
  6
CONTINUOUS
 62
     7
 10
-446.96483786244897
 20
276.36363056630228
 30
0.0
 40
202.15811503610291
 50
351.36163156084427
 51
355.57378918524449
  0
ARC
  5
304
  8
DATA
  6
CONTINUOUS
 62
     7
 10
-265.35000000000559
 20
262.30555311230961
 30
0.0
 40
20.00000000000545
 50
355.5737891852458
 51
0.0
  0
LINE
  5
305
  8
DATA
  6
CONTINUOUS
 62
     7
 10
-252.90000000000009
 20
245.99999999999449
 30
0.0
 11
-252.9000000000002
 21
111.77677417001649
 31
0.0
  0
LINE
  5
306
  8
DATA
  6
CONTINUOUS
 62
     7
 10
-247.10000000000011
 20
245.99999999999449
 30
0.0
 11
-247.10000000000011
 21
111.81908296737851
 31
0.0
  0
ARC
  5
307
  8
DATA
  6
CONTINUOUS
 62
     7
 10
-249.9975477328324
 20
72.062499999993548
 30
0.0
 40
7.0624999999999307
 50
318.751616292596
 51
7.6281496685807042
  0
ARC
  5
308
  8
DATA
  6
CONTINUOUS
 62
     7
 10
-249.9975477328324
 20
72.062499999993548
 30
0.0
 40
7.0625000000000089
 50
289.09161741923799
 51
301.4986097755413
  0
ARC
  5
309
  8
DATA
  6
CONTINUOUS
 62
     7
 10
-249.9975477328324
 20
72.062499999993548
 30
0.0
 40
7.0625000000000444
 50
264.39330938488359
 51
275.60669061511601
  0
ARC
  5
30A
  8
DATA
  6
CONTINUOUS
 62
     7
 10
-249.9975477328324
 20
72.062499999993548
 30
0.0
 40
7.0625000000000542
 50
238.50139022445791
 51
250.9083825807611
  0
ARC
  5
30B
  8
DATA
  6
CONTINUOUS
 62
     7
 10
-249.9975477328324
 20
72.062499999993548
 30
0.0
 40
7.0625
 50
172.3718503314193
 51
221.24838370740349
  0
LINE
  5
30C
  8
DATA
  6
CONTINUOUS
 62
     7
 10
-256.9975477328324
 20
72.999999999993548
 30
0.0
 11
-242.9975477328324
 21
72.999999999993548
 31
0.0
  0
ARC
  5
30D
  8
DATA
  6
CONTINUOUS
 62
     7
 10
-412.69101557211991
 20
101.470923608739
 30
0.0
 40
158.27523311926689
 50
349.63709189301562
 51
355.07561357445451
  0
LINE
  5
30E
  8
DATA
  6
CONTINUOUS
 62
     7
 10
-253.5652025408603
 20
100.2616530785278
 30
0.0
 11
-255.00000000003769
 21
87.884421969111202
 31
0.0
  0
ARC
  5
30F
  8
DATA
  6
CONTINUOUS
 62
     7
 10
-87.304079893544866
 20
101.470923608739
 30
0.0
 40
158.27523311926689
 50
184.92438642554549
 51
190.36290810698441
  0
LINE
  5
310
  8
DATA
  6
CONTINUOUS
 62
     7
 10
-246.4347974591401
 20
100.3039618758899
 30
0.0
 11
-244.995095465627
 21
87.884421969111202
 31
0.0
  0
ARC
  5
311
  8
DATA
  6
CONTINUOUS
 62
     7
 10
-352.9000000000002
 20
111.77677417001659
 30
0.0
 40
100.0
 50
353.38765326354422
 51
360.0
  0
ARC
  5
312
  8
DATA
  6
CONTINUOUS
 62
     7
 10
-147.10000000000011
 20
111.81908296737861
 30
0.0
 40
100.0
 50
180.0
 51
186.61234673645569
  0
LINE
  5
313
  8
DATA
  6
CONTINUOUS
 62
     7
 10
-252.3075477328324
 20
70.499999999993548
 30
0.0
 11
-250.6875477328324
 21
70.499999999993548
 31
0.0
  0
LINE
  5
314
  8
DATA
  6
CONTINUOUS
 62
     7
 10
-249.30754773283229
 20
70.499999999993548
 30
0.0
 11
-247.6875477328324
 21
70.499999999993548
 31
0.0
  0
LINE
  5
315
  8
DATA
  6
CONTINUOUS
 62
     7
 10
-250.6875477328324
 20
70.499999999993548
 30
0.0
 11
-250.6875477328324
 21
65.033787013251199
 31
0.0
  0
LINE
  5
316
  8
DATA
  6
CONTINUOUS
 62
     7
 10
-249.3075477328324
 20
65.033787013251199
 30
0.0
 11
-249.3075477328324
 21
70.499999999993605
 31
0.0
  0
LINE
  5
317
  8
DATA
  6
CONTINUOUS
 62
     7
 10
-247.6875477328324
 20
70.499999999993548
 30
0.0
 11
-247.6875477328324
 21
65.388460275059359
 31
0.0
  0
LINE
  5
318
  8
DATA
  6
CONTINUOUS
 62
     7
 10
-246.3075477328324
 20
66.04063930333173
 30
0.0
 11
-246.3075477328324
 21
70.499999999993605
 31
0.0
  0
LINE
  5
319
  8
DATA
  6
CONTINUOUS
 62
     7
 10
-244.6875477328324
 20
68.414218063203208
 30
0.0
 11
-244.6875477328324
 21
67.406019972118401
 31
0.0
  0
LINE
  5
31A
  8
DATA
  6
CONTINUOUS
 62
     7
 10
-253.6875477328324
 20
70.499999999993548
 30
0.0
 11
-253.6875477328324
 21
66.04063930333173
 31
0.0
  0
LINE
  5
31B
  8
DATA
  6
CONTINUOUS
 62
     7
 10
-252.3075477328324
 20
65.38846027505943
 30
0.0
 11
-252.3075477328324
 21
70.499999999993605
 31
0.0
  0
LINE
  5
31C
  8
DATA
  6
CONTINUOUS
 62
     7
 10
-255.3075477328324
 20
67.406019972118457
 30
0.0
 11
-255.3075477328324
 21
68.414218063203208
 31
0.0
  0
ARC
  5
31D
  8
DATA
  6
CONTINUOUS
 62
     7
 10
-249.9975477328324
 20
72.079188677572617
 30
0.0
 40
6.4519849352110477
 50
304.88401389236247
 51
325.38649908582221
  0
ARC
  5
31E
  8
DATA
  6
CONTINUOUS
 62
     7
 10
-249.9975477328324
 20
72.079188677572617
 30
0.0
 40
6.4519849352110841
 50
276.13917069199402
 51
290.97922114597452
  0
ARC
  5
31F
  8
DATA
  6
CONTINUOUS
 62
     7
 10
-249.9975477328324
 20
72.079188677572617
 30
0.0
 40
6.4519849352111134
 50
249.02077885402451
 51
263.86082930800552
  0
ARC
  5
320
  8
DATA
  6
CONTINUOUS
 62
     7
 10
-249.9975477328324
 20
72.079188677572617
 30
0.0
 40
6.451984935211164
 50
214.61350091417719
 51
235.1159861076367
  0
LINE
  5
321
  8
DATA
  6
CONTINUOUS
 62
     7
 10
-255.3075477328324
 20
68.414218063203208
 30
0.0
 11
-255.3075477328324
 21
70.499999999993605
 31
0.0
  0
LINE
  5
322
  8
DATA
  6
CONTINUOUS
 62
     7
 10
-244.6875477328324
 20
68.414218063203208
 30
0.0
 11
-244.6875477328324
 21
70.499999999993662
 31
0.0
  0
LINE
  5
323
  8
DATA
  6
CONTINUOUS
 62
     7
 10
-253.6875477328324
 20
70.499999999993548
 30
0.0
 11
-255.3075477328324
 21
70.499999999993548
 31
0.0
  0
LINE
  5
324
  8
DATA
  6
CONTINUOUS
 62
     7
 10
-246.3075477328324
 20
70.499999999993605
 30
0.0
 11
-244.6875477328324
 21
70.499999999993605
 31
0.0
  0
LINE
  5
325
  8
DATA
  6
CONTINUOUS
 62
     7
 10
-255.46572955126419
 20
77.999999999993463
 30
0.0
 11
-251.0975477328324
 21
77.999999999993463
 31
0.0
  0
LINE
  5
326
  8
DATA
  6
CONTINUOUS
 62
     7
 10
-248.89754773283229
 20
77.999999999993463
 30
0.0
 11
-244.52936591440061
 21
77.999999999993463
 31
0.0
  0
LINE
  5
327
  8
DATA
  6
CONTINUOUS
 62
     7
 10
-248.89754773283241
 20
77.999999999993463
 30
0.0
 11
-248.89754773283241
 21
78.799999999993474
 31
0.0
  0
LINE
  5
328
  8
DATA
  6
CONTINUOUS
 62
     7
 10
-248.89754773283241
 20
79.599999999993472
 30
0.0
 11
-248.89754773283241
 21
80.399999999993426
 31
0.0
  0
LINE
  5
329
  8
DATA
  6
CONTINUOUS
 62
     7
 10
-248.89754773283241
 20
81.199999999993395
 30
0.0
 11
-248.89754773283241
 21
81.999999999993463
 31
0.0
  0
LINE
  5
32A
  8
DATA
  6
CONTINUOUS
 62
     7
 10
-251.0975477328324
 20
81.999999999993463
 30
0.0
 11
-251.0975477328324
 21
81.199999999993395
 31
0.0
  0
LINE
  5
32B
  8
DATA
  6
CONTINUOUS
 62
     7
 10
-251.0975477328324
 20
80.399999999993426
 30
0.0
 11
-251.0975477328324
 21
79.599999999993472
 31
0.0
  0
LINE
  5
32C
  8
DATA
  6
CONTINUOUS
 62
     7
 10
-251.0975477328324
 20
78.799999999993474
 30
0.0
 11
-251.0975477328324
 21
77.999999999993463
 31
0.0
  0
LINE
  5
32D
  8
DATA
  6
CONTINUOUS
 62
     7
 10
-255.34785855054841
 20
78.799999999993474
 30
0.0
 11
-251.0975477328324
 21
78.799999999993474
 31
0.0
  0
LINE
  5
32E
  8
DATA
  6
CONTINUOUS
 62
     7
 10
-248.89754773283229
 20
78.799999999993474
 30
0.0
 11
-244.64723691511639
 21
78.799999999993474
 31
0.0
  0
LINE
  5
32F
  8
DATA
  6
CONTINUOUS
 62
     7
 10
-255.23415888170689
 20
79.599999999993472
 30
0.0
 11
-251.0975477328324
 21
79.599999999993472
 31
0.0
  0
LINE
  5
330
  8
DATA
  6
CONTINUOUS
 62
     7
 10
-248.89754773283229
 20
79.599999999993472
 30
0.0
 11
-244.76093658395791
 21
79.599999999993472
 31
0.0
  0
LINE
  5
331
  8
DATA
  6
CONTINUOUS
 62
     7
 10
-255.12462147436329
 20
80.399999999993426
 30
0.0
 11
-251.0975477328324
 21
80.399999999993426
 31
0.0
  0
LINE
  5
332
  8
DATA
  6
CONTINUOUS
 62
     7
 10
-248.89754773283229
 20
80.399999999993426
 30
0.0
 11
-244.8704739913014
 21
80.399999999993426
 31
0.0
  0
LINE
  5
333
  8
DATA
  6
CONTINUOUS
 62
     7
 10
-255.0192376150404
 20
81.199999999993452
 30
0.0
 11
-251.0975477328324
 21
81.199999999993452
 31
0.0
  0
LINE
  5
334
  8
DATA
  6
CONTINUOUS
 62
     7
 10
-248.89754773283229
 20
81.199999999993452
 30
0.0
 11
-244.97585785062441
 21
81.199999999993452
 31
0.0
  0
LINE
  5
335
  8
DATA
  6
CONTINUOUS
 62
     7
 10
-254.91799894360841
 20
81.999999999993463
 30
0.0
 11
-251.0975477328324
 21
81.999999999993463
 31
0.0
  0
LINE
  5
336
  8
DATA
  6
CONTINUOUS
 62
     7
 10
-248.89754773283229
 20
81.999999999993463
 30
0.0
 11
-245.07709652205639
 21
81.999999999993463
 31
0.0
  0
ARC
  5
337
  8
DATA
  6
CONTINUOUS
 62
     7
 10
-411.99101557211992
 20
101.470923608739
 30
0.0
 40
158.27523311926689
 50
352.64169650377067
 51
352.93360724550041
  0
ARC
  5
338
  8
DATA
  6
CONTINUOUS
 62
     7
 10
-411.99101557211992
 20
101.470923608739
 30
0.0
 40
158.27523311926689
 50
352.05729047691727
 51
352.34959357676729
  0
ARC
  5
339
  8
DATA
  6
CONTINUOUS
 62
     7
 10
-411.99101557211992
 20
101.470923608739
 30
0.0
 40
158.2752331192668
 50
351.4720515649143
 51
351.76477916837848
  0
ARC
  5
33A
  8
DATA
  6
CONTINUOUS
 62
     7
 10
-88.004079893544869
 20
101.470923608739
 30
0.0
 40
158.2752331192668
 50
188.23522083162129
 51
188.5279484350857
  0
ARC
  5
33B
  8
DATA
  6
CONTINUOUS
 62
     7
 10
-88.004079893544869
 20
101.470923608739
 30
0.0
 40
158.27523311926689
 50
187.65040642323251
 51
187.9427095230825
  0
ARC
  5
33C
  8
DATA
  6
CONTINUOUS
 62
     7
 10
-88.004079893544869
 20
101.470923608739
 30
0.0
 40
158.27523311926689
 50
187.06639275449959
 51
187.35830349622921
  0
LINE
  5
33D
  8
DATA
  6
CONTINUOUS
 62
     7
 10
-252.9000000000002
 20
111.77677417001649
 30
0.0
 11
-247.09999104982811
 21
111.77677417001649
 31
0.0
  0
LINE
  5
33E
  8
DATA
  6
CONTINUOUS
 62
     7
 10
-255.3075477328324
 20
70.499999999993605
 30
0.0
 11
-253.6875477328324
 21
68.879999999993601
 31
0.0
  0
LINE
  5
33F
  8
DATA
  6
CONTINUOUS
 62
     7
 10
-252.3075477328324
 20
67.499999999993605
 30
0.0
 11
-250.6875477328324
 21
65.879999999993643
 31
0.0
  0
LINE
  5
340
  8
DATA
  6
CONTINUOUS
 62
     7
 10
-255.3075477328324
 20
69.699999988072676
 30
0.0
 11
-253.6875477328324
 21
68.079999988072728
 31
0.0
  0
LINE
  5
341
  8
DATA
  6
CONTINUOUS
 62
     7
 10
-252.3075477328324
 20
66.699999988072733
 30
0.0
 11
-251.3858951180093
 21
65.778347373249531
 31
0.0
  0
LINE
  5
342
  8
DATA
  6
CONTINUOUS
 62
     7
 10
-255.3075477328324
 20
68.899999976151733
 30
0.0
 11
-253.6875477328324
 21
67.2799999761518
 31
0.0
  0
LINE
  5
343
  8
DATA
  6
CONTINUOUS
 62
     7
 10
-254.50754773283239
 20
70.499999999993548
 30
0.0
 11
-253.6875477328324
 21
69.679999999993612
 31
0.0
  0
LINE
  5
344
  8
DATA
  6
CONTINUOUS
 62
     7
 10
-252.3075477328324
 20
68.299999999993616
 30
0.0
 11
-250.6875477328324
 21
66.679999999993612
 31
0.0
  0
LINE
  5
345
  8
DATA
  6
CONTINUOUS
 62
     7
 10
-252.3075477328324
 20
69.099999999993571
 30
0.0
 11
-250.6875477328324
 21
67.479999999993566
 31
0.0
  0
LINE
  5
346
  8
DATA
  6
CONTINUOUS
 62
     7
 10
-249.3075477328324
 20
66.099999999993557
 30
0.0
 11
-248.9245923967234
 21
65.717044663884579
 31
0.0
  0
LINE
  5
347
  8
DATA
  6
CONTINUOUS
 62
     7
 10
-252.3075477328324
 20
69.899999999993639
 30
0.0
 11
-250.6875477328324
 21
68.279999999993635
 31
0.0
  0
LINE
  5
348
  8
DATA
  6
CONTINUOUS
 62
     7
 10
-249.3075477328324
 20
66.899999999993639
 30
0.0
 11
-248.27025951339209
 21
65.862711780553369
 31
0.0
  0
LINE
  5
349
  8
DATA
  6
CONTINUOUS
 62
     7
 10
-252.10754773283239
 20
70.499999999993548
 30
0.0
 11
-250.6875477328324
 21
69.079999999993589
 31
0.0
  0
LINE
  5
34A
  8
DATA
  6
CONTINUOUS
 62
     7
 10
-249.3075477328324
 20
67.699999999993594
 30
0.0
 11
-247.6875477328324
 21
66.079999999993575
 31
0.0
  0
LINE
  5
34B
  8
DATA
  6
CONTINUOUS
 62
     7
 10
-251.3075477328324
 20
70.499999999993605
 30
0.0
 11
-250.6875477328324
 21
69.879999999993601
 31
0.0
  0
LINE
  5
34C
  8
DATA
  6
CONTINUOUS
 62
     7
 10
-249.30754773283229
 20
68.499999999993534
 30
0.0
 11
-247.6875477328324
 21
66.879999999993601
 31
0.0
  0
LINE
  5
34D
  8
DATA
  6
CONTINUOUS
 62
     7
 10
-249.3075477328324
 20
69.299999999993616
 30
0.0
 11
-247.6875477328324
 21
67.679999999993612
 31
0.0
  0
LINE
  5
34E
  8
DATA
  6
CONTINUOUS
 62
     7
 10
-249.3075477328324
 20
70.099999999993571
 30
0.0
 11
-247.6875477328324
 21
68.479999999993623
 31
0.0
  0
LINE
  5
34F
  8
DATA
  6
CONTINUOUS
 62
     7
 10
-246.3075477328324
 20
67.099999999993571
 30
0.0
 11
-246.125666350388
 21
66.91811861754914
 31
0.0
  0
LINE
  5
350
  8
DATA
  6
CONTINUOUS
 62
     7
 10
-248.9075477328324
 20
70.499999999993605
 30
0.0
 11
-247.6875477328324
 21
69.279999999993635
 31
0.0
  0
LINE
  5
351
  8
DATA
  6
CONTINUOUS
 62
     7
 10
-246.3075477328324
 20
67.899999999993639
 30
0.0
 11
-245.68646117722989
 21
67.278913444391179
 31
0.0
  0
LINE
  5
352
  8
DATA
  6
CONTINUOUS
 62
     7
 10
-248.10754773283239
 20
70.499999999993605
 30
0.0
 11
-247.6875477328324
 21
70.079999999993589
 31
0.0
  0
LINE
  5
353
  8
DATA
  6
CONTINUOUS
 62
     7
 10
-246.3075477328324
 20
68.699999999993594
 30
0.0
 11
-245.28254736566839
 21
67.674999632829582
 31
0.0
  0
LINE
  5
354
  8
DATA
  6
CONTINUOUS
 62
     7
 10
-246.3075477328324
 20
69.499999999993662
 30
0.0
 11
-244.9138334079384
 21
68.106285675099599
 31
0.0
  0
LINE
  5
355
  8
DATA
  6
CONTINUOUS
 62
     7
 10
-246.3075477328324
 20
70.299999999993616
 30
0.0
 11
-244.68754773283229
 21
68.679999999993569
 31
0.0
  0
LINE
  5
356
  8
DATA
  6
CONTINUOUS
 62
     7
 10
-245.70754773283241
 20
70.499999999993548
 30
0.0
 11
-244.6875477328324
 21
69.479999999993623
 31
0.0
  0
LINE
  5
357
  8
DATA
  6
CONTINUOUS
 62
     7
 10
-253.74956279837031
 20
70.499999999993548
 30
0.0
 11
-255.3075477328324
 21
68.942015065531422
 31
0.0
  0
LINE
  5
358
  8
DATA
  6
CONTINUOUS
 62
     7
 10
-253.6875477328324
 20
69.762015065531344
 30
0.0
 11
-255.19427042054119
 21
68.255292377822499
 31
0.0
  0
LINE
  5
359
  8
DATA
  6
CONTINUOUS
 62
     7
 10
-252.1495627983702
 20
70.499999999993605
 30
0.0
 11
-252.3075477328324
 21
70.342015065531342
 31
0.0
  0
LINE
  5
35A
  8
DATA
  6
CONTINUOUS
 62
     7
 10
-253.6875477328324
 20
68.962015065531403
 30
0.0
 11
-254.8372039781336
 21
67.81235882023023
 31
0.0
  0
LINE
  5
35B
  8
DATA
  6
CONTINUOUS
 62
     7
 10
-251.34956279837019
 20
70.499999999993548
 30
0.0
 11
-252.3075477328324
 21
69.542015065531388
 31
0.0
  0
LINE
  5
35C
  8
DATA
  6
CONTINUOUS
 62
     7
 10
-253.6875477328324
 20
68.162015065531392
 30
0.0
 11
-254.44478901385841
 21
67.404773784505352
 31
0.0
  0
LINE
  5
35D
  8
DATA
  6
CONTINUOUS
 62
     7
 10
-250.6875477328324
 20
70.362015065531381
 30
0.0
 11
-252.3075477328324
 21
68.74201506553139
 31
0.0
  0
LINE
  5
35E
  8
DATA
  6
CONTINUOUS
 62
     7
 10
-253.6875477328324
 20
67.362015065531423
 30
0.0
 11
-254.01720296698321
 21
67.032359831380603
 31
0.0
  0
LINE
  5
35F
  8
DATA
  6
CONTINUOUS
 62
     7
 10
-250.6875477328324
 20
69.562015065531426
 30
0.0
 11
-252.3075477328324
 21
67.942015065531365
 31
0.0
  0
LINE
  5
360
  8
DATA
  6
CONTINUOUS
 62
     7
 10
-248.9495627983701
 20
70.499999999993548
 30
0.0
 11
-249.3075477328324
 21
70.14201506553141
 31
0.0
  0
LINE
  5
361
  8
DATA
  6
CONTINUOUS
 62
     7
 10
-250.6875477328324
 20
68.762015065531429
 30
0.0
 11
-252.3075477328324
 21
67.14201506553141
 31
0.0
  0
LINE
  5
362
  8
DATA
  6
CONTINUOUS
 62
     7
 10
-248.1495627983702
 20
70.499999999993605
 30
0.0
 11
-249.3075477328324
 21
69.34201506553147
 31
0.0
  0
LINE
  5
363
  8
DATA
  6
CONTINUOUS
 62
     7
 10
-250.6875477328324
 20
67.962015065531403
 30
0.0
 11
-252.3075477328324
 21
66.342015065531314
 31
0.0
  0
LINE
  5
364
  8
DATA
  6
CONTINUOUS
 62
     7
 10
-247.6875477328324
 20
70.162015065531392
 30
0.0
 11
-249.30754773283229
 21
68.54201506553143
 31
0.0
  0
LINE
  5
365
  8
DATA
  6
CONTINUOUS
 62
     7
 10
-250.6875477328324
 20
67.162015065531392
 30
0.0
 11
-251.92707923023929
 21
65.922483568124463
 31
0.0
  0
LINE
  5
366
  8
DATA
  6
CONTINUOUS
 62
     7
 10
-247.6875477328324
 20
69.362015065531381
 30
0.0
 11
-249.3075477328324
 21
67.742015065531419
 31
0.0
  0
LINE
  5
367
  8
DATA
  6
CONTINUOUS
 62
     7
 10
-250.6875477328324
 20
66.362015065531423
 30
0.0
 11
-251.29131383542091
 21
65.758248962942844
 31
0.0
  0
LINE
  5
368
  8
DATA
  6
CONTINUOUS
 62
     7
 10
-245.74956279837011
 20
70.499999999993662
 30
0.0
 11
-246.3075477328324
 21
69.942015065531365
 31
0.0
  0
LINE
  5
369
  8
DATA
  6
CONTINUOUS
 62
     7
 10
-247.6875477328324
 20
68.562015065531369
 30
0.0
 11
-249.3075477328324
 21
66.942015065531365
 31
0.0
  0
LINE
  5
36A
  8
DATA
  6
CONTINUOUS
 62
     7
 10
-247.6875477328324
 20
67.762015065531415
 30
0.0
 11
-249.30754773283229
 21
66.142015065531396
 31
0.0
  0
LINE
  5
36B
  8
DATA
  6
CONTINUOUS
 62
     7
 10
-244.68754773283229
 20
69.96201506553146
 30
0.0
 11
-246.3075477328324
 21
68.34201506553147
 31
0.0
  0
LINE
  5
36C
  8
DATA
  6
CONTINUOUS
 62
     7
 10
-247.6875477328324
 20
66.962015065531403
 30
0.0
 11
-248.9341171177268
 21
65.715445680637032
 31
0.0
  0
LINE
  5
36D
  8
DATA
  6
CONTINUOUS
 62
     7
 10
-244.6875477328324
 20
69.162015065531392
 30
0.0
 11
-246.3075477328324
 21
67.542015065531388
 31
0.0
  0
LINE
  5
36E
  8
DATA
  6
CONTINUOUS
 62
     7
 10
-247.6875477328324
 20
66.162015065531392
 30
0.0
 11
-247.8568923476748
 21
65.992670450688948
 31
0.0
  0
LINE
  5
36F
  8
DATA
  6
CONTINUOUS
 62
     7
 10
-246.3075477328324
 20
69.165807783754673
 30
0.0
 11
-244.97335551659339
 21
70.499999999993605
 31
0.0
  0
LINE
  5
370
  8
DATA
  6
CONTINUOUS
 62
     7
 10
-253.90000000000009
 20
340.99999999999511
 30
0.0
 11
-246.10000000000011
 21
339.24024390224412
 31
0.0
  0
LINE
  5
371
  8
DATA
  6
CONTINUOUS
 62
     7
 10
-253.90000000000009
 20
338.99999999999511
 30
0.0
 11
-246.10000000000011
 21
337.24024390224412
 31
0.0
  0
LINE
  5
372
  8
DATA
  6
CONTINUOUS
 62
     7
 10
-253.90000000000009
 20
338.1999999999951
 30
0.0
 11
-246.10000000000011
 21
336.44024390224399
 31
0.0
  0
LINE
  5
373
  8
DATA
  6
CONTINUOUS
 62
     7
 10
-253.90000000000009
 20
336.1999999999951
 30
0.0
 11
-246.10000000000011
 21
334.44024390224399
 31
0.0
  0
LINE
  5
374
  8
DATA
  6
CONTINUOUS
 62
     7
 10
-253.90000000000009
 20
335.39999999999509
 30
0.0
 11
-246.10000000000011
 21
333.64024390224409
 31
0.0
  0
LINE
  5
375
  8
DATA
  6
CONTINUOUS
 62
     7
 10
-253.90000000000009
 20
333.39999999999509
 30
0.0
 11
-246.10000000000011
 21
331.64024390224409
 31
0.0
  0
LINE
  5
376
  8
DATA
  6
CONTINUOUS
 62
     7
 10
-253.90000000000009
 20
332.59999999999508
 30
0.0
 11
-246.10000000000011
 21
330.84024390224408
 31
0.0
  0
LINE
  5
377
  8
DATA
  6
CONTINUOUS
 62
     7
 10
-253.90000000000009
 20
330.59999999999519
 30
0.0
 11
-246.10000000000011
 21
328.84024390224408
 31
0.0
  0
LINE
  5
378
  8
DATA
  6
CONTINUOUS
 62
     7
 10
-253.90000000000009
 20
329.79999999999512
 30
0.0
 11
-246.10000000000011
 21
328.04024390224407
 31
0.0
  0
LINE
  5
379
  8
DATA
  6
CONTINUOUS
 62
     7
 10
-253.90000000000009
 20
327.79999999999512
 30
0.0
 11
-246.10000000000011
 21
326.04024390224407
 31
0.0
  0
LINE
  5
37A
  8
DATA
  6
CONTINUOUS
 62
     7
 10
-253.90000000000009
 20
326.99999999999511
 30
0.0
 11
-246.10000000000011
 21
325.24024390224412
 31
0.0
  0
LINE
  5
37B
  8
DATA
  6
CONTINUOUS
 62
     7
 10
-253.90000000000009
 20
324.99999999999511
 30
0.0
 11
-246.10000000000011
 21
323.24024390224412
 31
0.0
  0
LINE
  5
37C
  8
DATA
  6
CONTINUOUS
 62
     7
 10
-253.90000000000009
 20
324.1999999999951
 30
0.0
 11
-246.10000000000011
 21
322.44024390224411
 31
0.0
  0
LINE
  5
37D
  8
DATA
  6
CONTINUOUS
 62
     7
 10
-253.90000000000009
 20
322.1999999999951
 30
0.0
 11
-246.10000000000011
 21
320.44024390224411
 31
0.0
  0
LINE
  5
37E
  8
DATA
  6
CONTINUOUS
 62
     7
 10
-253.90000000000009
 20
321.39999999999509
 30
0.0
 11
-246.10000000000011
 21
319.64024390224409
 31
0.0
  0
LINE
  5
37F
  8
DATA
  6
CONTINUOUS
 62
     7
 10
-253.90000000000009
 20
319.39999999999509
 30
0.0
 11
-246.10000000000011
 21
317.64024390224409
 31
0.0
  0
LINE
  5
380
  8
DATA
  6
CONTINUOUS
 62
     7
 10
-253.90000000000009
 20
318.59999999999508
 30
0.0
 11
-246.10000000000011
 21
316.84024390224408
 31
0.0
  0
LINE
  5
381
  8
DATA
  6
CONTINUOUS
 62
     7
 10
-253.90000000000009
 20
316.59999999999519
 30
0.0
 11
-246.10000000000011
 21
314.84024390224408
 31
0.0
  0
LINE
  5
382
  8
DATA
  6
CONTINUOUS
 62
     7
 10
-253.90000000000009
 20
315.79999999999512
 30
0.0
 11
-246.10000000000011
 21
314.04024390224407
 31
0.0
  0
LINE
  5
383
  8
DATA
  6
CONTINUOUS
 62
     7
 10
-253.90000000000009
 20
313.79999999999512
 30
0.0
 11
-246.10000000000011
 21
312.04024390224407
 31
0.0
  0
LINE
  5
384
  8
DATA
  6
CONTINUOUS
 62
     7
 10
-253.90000000000009
 20
312.99999999999511
 30
0.0
 11
-246.10000000000011
 21
311.240243902244
 31
0.0
  0
LINE
  5
385
  8
DATA
  6
CONTINUOUS
 62
     7
 10
-253.90000000000009
 20
310.99999999999511
 30
0.0
 11
-246.10000000000011
 21
309.240243902244
 31
0.0
  0
LINE
  5
386
  8
DATA
  6
CONTINUOUS
 62
     7
 10
-253.90000000000009
 20
310.1999999999951
 30
0.0
 11
-246.10000000000011
 21
308.44024390224399
 31
0.0
  0
LINE
  5
387
  8
DATA
  6
CONTINUOUS
 62
     7
 10
-253.90000000000009
 20
308.1999999999951
 30
0.0
 11
-246.10000000000011
 21
306.44024390224399
 31
0.0
  0
LINE
  5
388
  8
DATA
  6
CONTINUOUS
 62
     7
 10
-253.90000000000009
 20
307.39999999999509
 30
0.0
 11
-246.10000000000011
 21
305.64024390224409
 31
0.0
  0
LINE
  5
389
  8
DATA
  6
CONTINUOUS
 62
     7
 10
-253.90000000000009
 20
305.39999999999509
 30
0.0
 11
-246.10000000000011
 21
303.64024390224409
 31
0.0
  0
LINE
  5
38A
  8
DATA
  6
CONTINUOUS
 62
     7
 10
-253.90000000000009
 20
304.59999999999508
 30
0.0
 11
-246.10000000000011
 21
302.84024390224408
 31
0.0
  0
LINE
  5
38B
  8
DATA
  6
CONTINUOUS
 62
     7
 10
-253.90000000000009
 20
302.59999999999519
 30
0.0
 11
-246.10000000000011
 21
300.84024390224408
 31
0.0
  0
LINE
  5
38C
  8
DATA
  6
CONTINUOUS
 62
     7
 10
-253.90000000000009
 20
301.79999999999512
 30
0.0
 11
-246.10000000000011
 21
300.04024390224407
 31
0.0
  0
LINE
  5
38D
  8
DATA
  6
CONTINUOUS
 62
     7
 10
-253.90000000000009
 20
299.79999999999512
 30
0.0
 11
-246.10000000000011
 21
298.04024390224407
 31
0.0
  0
LINE
  5
38E
  8
DATA
  6
CONTINUOUS
 62
     7
 10
-253.90000000000009
 20
298.99999999999511
 30
0.0
 11
-246.10000000000011
 21
297.24024390224412
 31
0.0
  0
LINE
  5
38F
  8
DATA
  6
CONTINUOUS
 62
     7
 10
-253.90000000000009
 20
296.99999999999511
 30
0.0
 11
-246.10000000000011
 21
295.24024390224412
 31
0.0
  0
LINE
  5
390
  8
DATA
  6
CONTINUOUS
 62
     7
 10
-253.90000000000009
 20
296.1999999999951
 30
0.0
 11
-246.10000000000011
 21
294.44024390224399
 31
0.0
  0
LINE
  5
391
  8
DATA
  6
CONTINUOUS
 62
     7
 10
-253.90000000000009
 20
294.1999999999951
 30
0.0
 11
-246.10000000000011
 21
292.44024390224399
 31
0.0
  0
LINE
  5
392
  8
DATA
  6
CONTINUOUS
 62
     7
 10
-253.90000000000009
 20
293.39999999999509
 30
0.0
 11
-246.10000000000011
 21
291.64024390224409
 31
0.0
  0
LINE
  5
393
  8
DATA
  6
CONTINUOUS
 62
     7
 10
-253.90000000000009
 20
291.3999999999952
 30
0.0
 11
-246.10000000000011
 21
289.64024390224409
 31
0.0
  0
LINE
  5
394
  8
DATA
  6
CONTINUOUS
 62
     7
 10
-253.90000000000009
 20
290.59999999999519
 30
0.0
 11
-246.10000000000011
 21
288.84024390224408
 31
0.0
  0
LINE
  5
395
  8
DATA
  6
CONTINUOUS
 62
     7
 10
-253.90000000000009
 20
288.59999999999519
 30
0.0
 11
-246.10000000000011
 21
286.84024390224408
 31
0.0
  0
LINE
  5
396
  8
DATA
  6
CONTINUOUS
 62
     7
 10
-253.90000000000009
 20
287.79999999999512
 30
0.0
 11
-246.10000000000011
 21
286.04024390224407
 31
0.0
  0
LINE
  5
397
  8
DATA
  6
CONTINUOUS
 62
     7
 10
-253.90000000000009
 20
285.79999999999512
 30
0.0
 11
-246.10000000000011
 21
284.04024390224407
 31
0.0
  0
LINE
  5
398
  8
DATA
  6
CONTINUOUS
 62
     7
 10
-253.90000000000009
 20
284.99999999999511
 30
0.0
 11
-246.10000000000011
 21
283.24024390224412
 31
0.0
  0
LINE
  5
399
  8
DATA
  6
CONTINUOUS
 62
     7
 10
-253.90000000000009
 20
282.99999999999511
 30
0.0
 11
-246.10000000000011
 21
281.24024390224412
 31
0.0
  0
LINE
  5
39A
  8
DATA
  6
CONTINUOUS
 62
     7
 10
-253.90000000000009
 20
282.1999999999951
 30
0.0
 11
-246.10000000000011
 21
280.44024390224411
 31
0.0
  0
LINE
  5
39B
  8
DATA
  6
CONTINUOUS
 62
     7
 10
-253.90000000000009
 20
280.1999999999951
 30
0.0
 11
-246.10000000000011
 21
278.44024390224411
 31
0.0
  0
LINE
  5
39C
  8
DATA
  6
CONTINUOUS
 62
     7
 10
-253.90000000000009
 20
279.39999999999509
 30
0.0
 11
-246.10000000000011
 21
277.64024390224398
 31
0.0
  0
LINE
  5
39D
  8
DATA
  6
CONTINUOUS
 62
     7
 10
-253.90000000000009
 20
277.39999999999509
 30
0.0
 11
-247.6945945952651
 21
275.99999999999511
 31
0.0
  0
LINE
  5
39E
  8
DATA
  6
CONTINUOUS
 62
     7
 10
-253.90000000000009
 20
276.59999999999508
 30
0.0
 11
-251.24054054082811
 21
275.99999999999511
 31
0.0
  0
LINE
  5
39F
  8
DATA
  6
CONTINUOUS
 62
     7
 10
208.9998766664597
 20
-83.742484514269293
 30
0.0
 11
190.9998766664597
 21
-82.488032816636192
 31
0.0
  0
LINE
  5
3A0
  8
DATA
  6
CONTINUOUS
 62
     7
 10
208.9998766664597
 20
-68.228676584667468
 30
0.0
 11
190.9998766664597
 21
-69.488032816636178
 31
0.0
  0
LINE
  5
3A1
  8
DATA
  6
CONTINUOUS
 62
     7
 10
190.9998766664597
 20
-82.488032816636192
 30
0.0
 11
190.9998766664597
 21
-69.488032816636178
 31
0.0
  0
LINE
  5
3A2
  8
DATA
  6
CONTINUOUS
 62
     7
 10
190.9998766664597
 20
-79.888032816636183
 30
0.0
 11
125.9998766664595
 21
-79.888032816636183
 31
0.0
  0
LINE
  5
3A3
  8
DATA
  6
CONTINUOUS
 62
     7
 10
125.9998766664595
 20
-72.088032816636186
 30
0.0
 11
190.9998766664597
 21
-72.088032816636186
 31
0.0
  0
LINE
  5
3A4
  8
DATA
  6
CONTINUOUS
 62
     7
 10
125.9998766664595
 20
-80.638032816636183
 30
0.0
 11
125.9998766664595
 21
-71.338032816636201
 31
0.0
  0
LINE
  5
3A5
  8
DATA
  6
CONTINUOUS
 62
     7
 10
95.999876666459556
 20
-78.888032816636183
 30
0.0
 11
95.999876666459556
 21
-73.088032816636186
 31
0.0
  0
LINE
  5
3A6
  8
DATA
  6
CONTINUOUS
 62
     7
 10
125.9998766664595
 20
-80.638032816636183
 30
0.0
 11
112.3054297787741
 21
-80.638032816636183
 31
0.0
  0
ARC
  5
3A7
  8
DATA
  6
CONTINUOUS
 62
     7
 10
126.36350723276659
 20
120.9768050458123
 30
0.0
 40
202.1581150361024
 50
261.3616315608445
 51
265.57378918524461
  0
ARC
  5
3A8
  8
DATA
  6
CONTINUOUS
 62
     7
 10
112.3054297787741
 20
-60.638032816630698
 30
0.0
 40
20.000000000005478
 50
265.57378918524591
 51
270.0
  0
LINE
  5
3A9
  8
DATA
  6
CONTINUOUS
 62
     7
 10
125.9998766664595
 20
-71.338032816636201
 30
0.0
 11
112.3054297787741
 21
-71.338032816636201
 31
0.0
  0
ARC
  5
3AA
  8
DATA
  6
CONTINUOUS
 62
     7
 10
126.36350723276659
 20
-272.95287067908561
 30
0.0
 40
202.1581150361032
 50
94.426210814755407
 51
98.638368439155514
  0
ARC
  5
3AB
  8
DATA
  6
CONTINUOUS
 62
     7
 10
112.3054297787741
 20
-91.338032816641615
 30
0.0
 40
20.00000000000545
 50
90.0
 51
94.426210814754128
  0
LINE
  5
3AC
  8
DATA
  6
CONTINUOUS
 62
     7
 10
95.999876666459556
 20
-78.888032816636183
 30
0.0
 11
-38.223349163516971
 21
-78.888032816636183
 31
0.0
  0
LINE
  5
3AD
  8
DATA
  6
CONTINUOUS
 62
     7
 10
95.999876666459556
 20
-73.088032816636186
 30
0.0
 11
-38.181040366154932
 21
-73.088032816636186
 31
0.0
  0
LINE
  5
3AE
  8
DATA
  6
CONTINUOUS
 62
     7
 10
-77.000123333540444
 20
-82.985580549468423
 30
0.0
 11
-77.000123333540444
 21
-68.985580549468409
 31
0.0
  0
ARC
  5
3AF
  8
DATA
  6
CONTINUOUS
 62
     7
 10
-48.529199724794637
 20
-238.67904838875609
 30
0.0
 40
158.275233119267
 50
94.924386425545507
 51
100.36290810698441
  0
LINE
  5
3B0
  8
DATA
  6
CONTINUOUS
 62
     7
 10
-49.738470255005844
 20
-79.553235357496305
 30
0.0
 11
-62.115701364422598
 21
-80.988032816673737
 31
0.0
  0
ARC
  5
3B1
  8
DATA
  6
CONTINUOUS
 62
     7
 10
-48.529199724794637
 20
86.707887289818643
 30
0.0
 40
158.2752331192664
 50
259.63709189301551
 51
265.07561357445439
  0
LINE
  5
3B2
  8
DATA
  6
CONTINUOUS
 62
     7
 10
-49.696161457643797
 20
-72.422830275776093
 30
0.0
 11
-62.115701364422598
 21
-70.983128282263124
 31
0.0
  0
ARC
  5
3B3
  8
DATA
  6
CONTINUOUS
 62
     7
 10
-38.223349163516851
 20
-178.88803281663581
 30
0.0
 40
99.999999999999659
 50
90.000000000000057
 51
96.612346736455876
  0
ARC
  5
3B4
  8
DATA
  6
CONTINUOUS
 62
     7
 10
-38.181040366154811
 20
26.91196718336386
 30
0.0
 40
100.0
 50
263.38765326354411
 51
269.99999999999989
  0
LINE
  5
3B5
  8
DATA
  6
CONTINUOUS
 62
     7
 10
-72.000123333540415
 20
-81.453762367900197
 30
0.0
 11
-72.000123333540415
 21
-77.085580549468375
 31
0.0
  0
LINE
  5
3B6
  8
DATA
  6
CONTINUOUS
 62
     7
 10
-72.000123333540415
 20
-74.885580549468372
 30
0.0
 11
-72.000123333540415
 21
-70.517398731036693
 31
0.0
  0
LINE
  5
3B7
  8
DATA
  6
CONTINUOUS
 62
     7
 10
-72.000123333540415
 20
-74.885580549468415
 30
0.0
 11
-71.20012333354039
 21
-74.885580549468415
 31
0.0
  0
LINE
  5
3B8
  8
DATA
  6
CONTINUOUS
 62
     7
 10
-70.400123333540392
 20
-74.885580549468415
 30
0.0
 11
-69.600123333540381
 21
-74.885580549468415
 31
0.0
  0
LINE
  5
3B9
  8
DATA
  6
CONTINUOUS
 62
     7
 10
-68.800123333540427
 20
-74.885580549468415
 30
0.0
 11
-68.000123333540344
 21
-74.885580549468415
 31
0.0
  0
LINE
  5
3BA
  8
DATA
  6
CONTINUOUS
 62
     7
 10
-68.000123333540358
 20
-77.085580549468403
 30
0.0
 11
-68.800123333540427
 21
-77.085580549468403
 31
0.0
  0
LINE
  5
3BB
  8
DATA
  6
CONTINUOUS
 62
     7
 10
-69.600123333540381
 20
-77.085580549468403
 30
0.0
 11
-70.400123333540392
 21
-77.085580549468403
 31
0.0
  0
LINE
  5
3BC
  8
DATA
  6
CONTINUOUS
 62
     7
 10
-71.20012333354039
 20
-77.085580549468403
 30
0.0
 11
-72.000123333540415
 21
-77.085580549468403
 31
0.0
  0
LINE
  5
3BD
  8
DATA
  6
CONTINUOUS
 62
     7
 10
-71.20012333354039
 20
-81.335891367184459
 30
0.0
 11
-71.20012333354039
 21
-77.085580549468375
 31
0.0
  0
LINE
  5
3BE
  8
DATA
  6
CONTINUOUS
 62
     7
 10
-71.20012333354039
 20
-74.885580549468372
 30
0.0
 11
-71.20012333354039
 21
-70.63526973175243
 31
0.0
  0
LINE
  5
3BF
  8
DATA
  6
CONTINUOUS
 62
     7
 10
-70.400123333540392
 20
-81.222191698342883
 30
0.0
 11
-70.400123333540392
 21
-77.085580549468375
 31
0.0
  0
LINE
  5
3C0
  8
DATA
  6
CONTINUOUS
 62
     7
 10
-70.400123333540392
 20
-74.885580549468372
 30
0.0
 11
-70.400123333540392
 21
-70.748969400593992
 31
0.0
  0
LINE
  5
3C1
  8
DATA
  6
CONTINUOUS
 62
     7
 10
-69.600123333540381
 20
-81.112654290999302
 30
0.0
 11
-69.600123333540381
 21
-77.085580549468375
 31
0.0
  0
LINE
  5
3C2
  8
DATA
  6
CONTINUOUS
 62
     7
 10
-69.600123333540381
 20
-74.885580549468372
 30
0.0
 11
-69.600123333540381
 21
-70.858506807937488
 31
0.0
  0
LINE
  5
3C3
  8
DATA
  6
CONTINUOUS
 62
     7
 10
-68.800123333540398
 20
-81.007270431676417
 30
0.0
 11
-68.800123333540398
 21
-77.085580549468375
 31
0.0
  0
LINE
  5
3C4
  8
DATA
  6
CONTINUOUS
 62
     7
 10
-68.800123333540398
 20
-74.885580549468372
 30
0.0
 11
-68.800123333540398
 21
-70.9638906672605
 31
0.0
  0
LINE
  5
3C5
  8
DATA
  6
CONTINUOUS
 62
     7
 10
-68.000123333540358
 20
-80.906031760244403
 30
0.0
 11
-68.000123333540358
 21
-77.085580549468375
 31
0.0
  0
LINE
  5
3C6
  8
DATA
  6
CONTINUOUS
 62
     7
 10
-68.000123333540358
 20
-74.885580549468372
 30
0.0
 11
-68.000123333540358
 21
-71.065129338692486
 31
0.0
  0
ARC
  5
3C7
  8
DATA
  6
CONTINUOUS
 62
     7
 10
-48.529199724794637
 20
-237.9790483887561
 30
0.0
 40
158.27523311926711
 50
97.066392754499716
 51
97.358303496229311
  0
ARC
  5
3C8
  8
DATA
  6
CONTINUOUS
 62
     7
 10
-48.529199724794637
 20
-237.9790483887561
 30
0.0
 40
158.27523311926711
 50
97.650406423232724
 51
97.942709523082698
  0
ARC
  5
3C9
  8
DATA
  6
CONTINUOUS
 62
     7
 10
-48.529199724794637
 20
-237.9790483887561
 30
0.0
 40
158.27523311926711
 50
98.235220831621575
 51
98.52794843508579
  0
ARC
  5
3CA
  8
DATA
  6
CONTINUOUS
 62
     7
 10
-48.529199724794637
 20
86.007887289818655
 30
0.0
 40
158.2752331192664
 50
261.4720515649143
 51
261.76477916837848
  0
ARC
  5
3CB
  8
DATA
  6
CONTINUOUS
 62
     7
 10
-48.529199724794637
 20
86.007887289818655
 30
0.0
 40
158.2752331192664
 50
262.05729047691739
 51
262.34959357676729
  0
ARC
  5
3CC
  8
DATA
  6
CONTINUOUS
 62
     7
 10
-48.529199724794637
 20
86.007887289818655
 30
0.0
 40
158.2752331192664
 50
262.6416965037709
 51
262.93360724550041
  0
LINE
  5
3CD
  8
DATA
  6
CONTINUOUS
 62
     7
 10
-38.223349163516971
 20
-78.888032816636183
 30
0.0
 11
-38.223349163516971
 21
-73.088023866464141
 31
0.0
  0
LINE
  5
3CE
  8
DATA
  6
CONTINUOUS
 62
     7
 10
190.9998766664597
 20
-79.888032816636183
 30
0.0
 11
189.24012056870859
 21
-72.088032816636186
 31
0.0
  0
LINE
  5
3CF
  8
DATA
  6
CONTINUOUS
 62
     7
 10
188.9998766664597
 20
-79.888032816636183
 30
0.0
 11
187.24012056870859
 21
-72.088032816636186
 31
0.0
  0
LINE
  5
3D0
  8
DATA
  6
CONTINUOUS
 62
     7
 10
188.19987666645969
 20
-79.888032816636183
 30
0.0
 11
186.44012056870861
 21
-72.088032816636186
 31
0.0
  0
LINE
  5
3D1
  8
DATA
  6
CONTINUOUS
 62
     7
 10
186.19987666645969
 20
-79.888032816636183
 30
0.0
 11
184.44012056870861
 21
-72.088032816636186
 31
0.0
  0
LINE
  5
3D2
  8
DATA
  6
CONTINUOUS
 62
     7
 10
185.39987666645959
 20
-79.888032816636183
 30
0.0
 11
183.6401205687086
 21
-72.088032816636186
 31
0.0
  0
LINE
  5
3D3
  8
DATA
  6
CONTINUOUS
 62
     7
 10
183.39987666645959
 20
-79.888032816636183
 30
0.0
 11
181.6401205687086
 21
-72.088032816636186
 31
0.0
  0
LINE
  5
3D4
  8
DATA
  6
CONTINUOUS
 62
     7
 10
182.59987666645961
 20
-79.888032816636183
 30
0.0
 11
180.84012056870861
 21
-72.088032816636186
 31
0.0
  0
LINE
  5
3D5
  8
DATA
  6
CONTINUOUS
 62
     7
 10
180.59987666645969
 20
-79.888032816636183
 30
0.0
 11
178.84012056870861
 21
-72.088032816636186
 31
0.0
  0
LINE
  5
3D6
  8
DATA
  6
CONTINUOUS
 62
     7
 10
179.79987666645971
 20
-79.888032816636183
 30
0.0
 11
178.0401205687086
 21
-72.088032816636186
 31
0.0
  0
LINE
  5
3D7
  8
DATA
  6
CONTINUOUS
 62
     7
 10
177.79987666645971
 20
-79.888032816636183
 30
0.0
 11
176.0401205687086
 21
-72.088032816636186
 31
0.0
  0
LINE
  5
3D8
  8
DATA
  6
CONTINUOUS
 62
     7
 10
176.9998766664597
 20
-79.888032816636183
 30
0.0
 11
175.24012056870859
 21
-72.088032816636186
 31
0.0
  0
LINE
  5
3D9
  8
DATA
  6
CONTINUOUS
 62
     7
 10
174.9998766664597
 20
-79.888032816636183
 30
0.0
 11
173.24012056870859
 21
-72.088032816636186
 31
0.0
  0
LINE
  5
3DA
  8
DATA
  6
CONTINUOUS
 62
     7
 10
174.1998766664596
 20
-79.888032816636183
 30
0.0
 11
172.44012056870861
 21
-72.088032816636186
 31
0.0
  0
LINE
  5
3DB
  8
DATA
  6
CONTINUOUS
 62
     7
 10
172.1998766664596
 20
-79.888032816636183
 30
0.0
 11
170.44012056870861
 21
-72.088032816636186
 31
0.0
  0
LINE
  5
3DC
  8
DATA
  6
CONTINUOUS
 62
     7
 10
171.39987666645959
 20
-79.888032816636183
 30
0.0
 11
169.6401205687086
 21
-72.088032816636186
 31
0.0
  0
LINE
  5
3DD
  8
DATA
  6
CONTINUOUS
 62
     7
 10
169.39987666645959
 20
-79.888032816636183
 30
0.0
 11
167.6401205687086
 21
-72.088032816636186
 31
0.0
  0
LINE
  5
3DE
  8
DATA
  6
CONTINUOUS
 62
     7
 10
168.59987666645961
 20
-79.888032816636183
 30
0.0
 11
166.84012056870861
 21
-72.088032816636186
 31
0.0
  0
LINE
  5
3DF
  8
DATA
  6
CONTINUOUS
 62
     7
 10
166.59987666645969
 20
-79.888032816636183
 30
0.0
 11
164.84012056870861
 21
-72.088032816636186
 31
0.0
  0
LINE
  5
3E0
  8
DATA
  6
CONTINUOUS
 62
     7
 10
165.7998766664596
 20
-79.888032816636183
 30
0.0
 11
164.0401205687086
 21
-72.088032816636186
 31
0.0
  0
LINE
  5
3E1
  8
DATA
  6
CONTINUOUS
 62
     7
 10
163.79987666645971
 20
-79.888032816636183
 30
0.0
 11
162.0401205687086
 21
-72.088032816636186
 31
0.0
  0
LINE
  5
3E2
  8
DATA
  6
CONTINUOUS
 62
     7
 10
162.9998766664597
 20
-79.888032816636183
 30
0.0
 11
161.24012056870859
 21
-72.088032816636186
 31
0.0
  0
LINE
  5
3E3
  8
DATA
  6
CONTINUOUS
 62
     7
 10
160.9998766664597
 20
-79.888032816636183
 30
0.0
 11
159.24012056870859
 21
-72.088032816636186
 31
0.0
  0
LINE
  5
3E4
  8
DATA
  6
CONTINUOUS
 62
     7
 10
160.1998766664596
 20
-79.888032816636183
 30
0.0
 11
158.44012056870849
 21
-72.088032816636186
 31
0.0
  0
LINE
  5
3E5
  8
DATA
  6
CONTINUOUS
 62
     7
 10
158.1998766664596
 20
-79.888032816636183
 30
0.0
 11
156.44012056870861
 21
-72.088032816636186
 31
0.0
  0
LINE
  5
3E6
  8
DATA
  6
CONTINUOUS
 62
     7
 10
157.39987666645959
 20
-79.888032816636183
 30
0.0
 11
155.6401205687086
 21
-72.088032816636186
 31
0.0
  0
LINE
  5
3E7
  8
DATA
  6
CONTINUOUS
 62
     7
 10
155.39987666645959
 20
-79.888032816636183
 30
0.0
 11
153.6401205687086
 21
-72.088032816636186
 31
0.0
  0
LINE
  5
3E8
  8
DATA
  6
CONTINUOUS
 62
     7
 10
154.59987666645961
 20
-79.888032816636183
 30
0.0
 11
152.84012056870861
 21
-72.088032816636186
 31
0.0
  0
LINE
  5
3E9
  8
DATA
  6
CONTINUOUS
 62
     7
 10
152.59987666645969
 20
-79.888032816636183
 30
0.0
 11
150.84012056870861
 21
-72.088032816636186
 31
0.0
  0
LINE
  5
3EA
  8
DATA
  6
CONTINUOUS
 62
     7
 10
151.79987666645971
 20
-79.888032816636183
 30
0.0
 11
150.0401205687086
 21
-72.088032816636186
 31
0.0
  0
LINE
  5
3EB
  8
DATA
  6
CONTINUOUS
 62
     7
 10
149.79987666645971
 20
-79.888032816636183
 30
0.0
 11
148.0401205687086
 21
-72.088032816636186
 31
0.0
  0
LINE
  5
3EC
  8
DATA
  6
CONTINUOUS
 62
     7
 10
148.9998766664597
 20
-79.888032816636183
 30
0.0
 11
147.24012056870859
 21
-72.088032816636186
 31
0.0
  0
LINE
  5
3ED
  8
DATA
  6
CONTINUOUS
 62
     7
 10
146.9998766664597
 20
-79.888032816636183
 30
0.0
 11
145.24012056870859
 21
-72.088032816636186
 31
0.0
  0
LINE
  5
3EE
  8
DATA
  6
CONTINUOUS
 62
     7
 10
146.1998766664596
 20
-79.888032816636183
 30
0.0
 11
144.44012056870861
 21
-72.088032816636186
 31
0.0
  0
LINE
  5
3EF
  8
DATA
  6
CONTINUOUS
 62
     7
 10
144.1998766664596
 20
-79.888032816636183
 30
0.0
 11
142.44012056870849
 21
-72.088032816636186
 31
0.0
  0
LINE
  5
3F0
  8
DATA
  6
CONTINUOUS
 62
     7
 10
143.39987666645959
 20
-79.888032816636183
 30
0.0
 11
141.64012056870851
 21
-72.088032816636186
 31
0.0
  0
LINE
  5
3F1
  8
DATA
  6
CONTINUOUS
 62
     7
 10
141.39987666645959
 20
-79.888032816636183
 30
0.0
 11
139.64012056870851
 21
-72.088032816636186
 31
0.0
  0
LINE
  5
3F2
  8
DATA
  6
CONTINUOUS
 62
     7
 10
140.59987666645961
 20
-79.888032816636183
 30
0.0
 11
138.8401205687085
 21
-72.088032816636186
 31
0.0
  0
LINE
  5
3F3
  8
DATA
  6
CONTINUOUS
 62
     7
 10
138.59987666645961
 20
-79.888032816636183
 30
0.0
 11
136.8401205687085
 21
-72.088032816636186
 31
0.0
  0
LINE
  5
3F4
  8
DATA
  6
CONTINUOUS
 62
     7
 10
137.79987666645951
 20
-79.888032816636183
 30
0.0
 11
136.04012056870849
 21
-72.088032816636186
 31
0.0
  0
LINE
  5
3F5
  8
DATA
  6
CONTINUOUS
 62
     7
 10
135.79987666645951
 20
-79.888032816636183
 30
0.0
 11
134.04012056870849
 21
-72.088032816636186
 31
0.0
  0
LINE
  5
3F6
  8
DATA
  6
CONTINUOUS
 62
     7
 10
134.9998766664595
 20
-79.888032816636183
 30
0.0
 11
133.24012056870851
 21
-72.088032816636186
 31
0.0
  0
LINE
  5
3F7
  8
DATA
  6
CONTINUOUS
 62
     7
 10
132.9998766664595
 20
-79.888032816636183
 30
0.0
 11
131.24012056870851
 21
-72.088032816636186
 31
0.0
  0
LINE
  5
3F8
  8
DATA
  6
CONTINUOUS
 62
     7
 10
132.1998766664596
 20
-79.888032816636183
 30
0.0
 11
130.44012056870841
 21
-72.088032816636186
 31
0.0
  0
LINE
  5
3F9
  8
DATA
  6
CONTINUOUS
 62
     7
 10
130.1998766664596
 20
-79.888032816636183
 30
0.0
 11
128.44012056870841
 21
-72.088032816636186
 31
0.0
  0
LINE
  5
3FA
  8
DATA
  6
CONTINUOUS
 62
     7
 10
129.39987666645951
 20
-79.888032816636183
 30
0.0
 11
127.6401205687085
 21
-72.088032816636186
 31
0.0
  0
LINE
  5
3FB
  8
DATA
  6
CONTINUOUS
 62
     7
 10
127.39987666645951
 20
-79.888032816636183
 30
0.0
 11
125.9998766664595
 21
-73.682627411901137
 31
0.0
  0
LINE
  5
3FC
  8
DATA
  6
CONTINUOUS
 62
     7
 10
126.59987666645949
 20
-79.888032816636183
 30
0.0
 11
125.9998766664595
 21
-77.228573357464185
 31
0.0
  0
CIRCLE
  5
3FD
  8
DATA
  6
CONTINUOUS
 62
     7
 10
-250.00000000003769
 20
-75.988032816636192
 30
0.0
 40
7.0500000000000682
  0
CIRCLE
  5
3FE
  8
DATA
  6
CONTINUOUS
 62
     7
 10
-250.00000000003769
 20
-75.988032816636192
 30
0.0
 40
7.75
  0
LINE
  5
3FF
  8
DATA
  6
CONTINUOUS
 62
     7
 10
-250.62750000003771
 20
-82.489345747573395
 30
0.0
 11
-250.62750000003771
 21
-69.48671988569896
 31
0.0
  0
LINE
  5
400
  8
DATA
  6
CONTINUOUS
 62
     7
 10
-249.24750000003769
 20
-82.476065632981303
 30
0.0
 11
-249.24750000003769
 21
-69.500000000291038
 31
0.0
  0
LINE
  5
401
  8
DATA
  6
CONTINUOUS
 62
     7
 10
-252.2475000000378
 20
-82.120696986959814
 30
0.0
 11
-252.2475000000378
 21
-69.85536864631257
 31
0.0
  0
LINE
  5
402
  8
DATA
  6
CONTINUOUS
 62
     7
 10
-253.62750000003771
 20
-81.419613601819393
 30
0.0
 11
-253.62750000003771
 21
-70.556452031452977
 31
0.0
  0
LINE
  5
403
  8
DATA
  6
CONTINUOUS
 62
     7
 10
-247.62750000003771
 20
-82.073430899421865
 30
0.0
 11
-247.62750000003771
 21
-69.902634733850505
 31
0.0
  0
LINE
  5
404
  8
DATA
  6
CONTINUOUS
 62
     7
 10
-246.24750000003769
 20
-81.334019145272975
 30
0.0
 11
-246.24750000003769
 21
-70.642046487999366
 31
0.0
  0
LINE
  5
405
  8
DATA
  6
CONTINUOUS
 62
     7
 10
-255.24750000003769
 20
-79.877064807501185
 30
0.0
 11
-255.24750000003769
 21
-72.099000825771157
 31
0.0
  0
LINE
  5
406
  8
DATA
  6
CONTINUOUS
 62
     7
 10
-244.62750000003771
 20
-79.702473531733347
 30
0.0
 11
-244.62750000003771
 21
-72.273592101539009
 31
0.0
  0
CIRCLE
  5
407
  8
DATA
  6
CONTINUOUS
 62
     7
 10
-250.00000000003769
 20
-75.988032816636192
 30
0.0
 40
6.5315255550270566
  0
LINE
  5
408
  8
DATA
  6
CONTINUOUS
 62
     7
 10
-255.24750000003769
 20
-72.863067781797625
 30
0.0
 11
-253.62750000003771
 21
-71.243067781797606
 31
0.0
  0
LINE
  5
409
  8
DATA
  6
CONTINUOUS
 62
     7
 10
-252.24750000003769
 20
-69.863067781797639
 30
0.0
 11
-252.23536851704921
 21
-69.850936298809046
 31
0.0
  0
LINE
  5
40A
  8
DATA
  6
CONTINUOUS
 62
     7
 10
-256.43101159625172
 20
-74.846579389932458
 30
0.0
 11
-256.41653632789399
 21
-74.832104121574901
 31
0.0
  0
LINE
  5
40B
  8
DATA
  6
CONTINUOUS
 62
     7
 10
-255.24750000003769
 20
-73.663067793718554
 30
0.0
 11
-253.62750000003771
 21
-72.043067793718564
 31
0.0
  0
LINE
  5
40C
  8
DATA
  6
CONTINUOUS
 62
     7
 10
-252.24750000003769
 20
-70.663067793718554
 30
0.0
 11
-251.14145342674149
 21
-69.557021220422286
 31
0.0
  0
LINE
  5
40D
  8
DATA
  6
CONTINUOUS
 62
     7
 10
-255.24750000003769
 20
-74.463067805639469
 30
0.0
 11
-253.62750000003771
 21
-72.843067805639464
 31
0.0
  0
LINE
  5
40E
  8
DATA
  6
CONTINUOUS
 62
     7
 10
-252.24750000003769
 20
-71.463067805639525
 30
0.0
 11
-250.62750000003771
 21
-69.843067805639464
 31
0.0
  0
LINE
  5
40F
  8
DATA
  6
CONTINUOUS
 62
     7
 10
-255.24750000003769
 20
-75.263067817560383
 30
0.0
 11
-253.62750000003771
 21
-73.643067817560379
 31
0.0
  0
LINE
  5
410
  8
DATA
  6
CONTINUOUS
 62
     7
 10
-252.24750000003769
 20
-72.263067817560426
 30
0.0
 11
-250.62750000003771
 21
-70.643067817560393
 31
0.0
  0
LINE
  5
411
  8
DATA
  6
CONTINUOUS
 62
     7
 10
-250.0165363159731
 20
-70.032104133495821
 30
0.0
 11
-250.00000000003769
 21
-70.015567817560395
 31
0.0
  0
LINE
  5
412
  8
DATA
  6
CONTINUOUS
 62
     7
 10
-256.4165363100127
 20
-77.232104139456268
 30
0.0
 11
-256.41269489734401
 21
-77.228262726787548
 31
0.0
  0
LINE
  5
413
  8
DATA
  6
CONTINUOUS
 62
     7
 10
-255.24750000003769
 20
-76.063067829481312
 30
0.0
 11
-253.62750000003771
 21
-74.44306782948135
 31
0.0
  0
LINE
  5
414
  8
DATA
  6
CONTINUOUS
 62
     7
 10
-252.24750000003769
 20
-73.063067829481312
 30
0.0
 11
-250.62750000003771
 21
-71.443067829481322
 31
0.0
  0
LINE
  5
415
  8
DATA
  6
CONTINUOUS
 62
     7
 10
-249.24750000003769
 20
-70.063067829481326
 30
0.0
 11
-248.75977008988639
 21
-69.575337919329968
 31
0.0
  0
LINE
  5
416
  8
DATA
  6
CONTINUOUS
 62
     7
 10
-255.24750000003769
 20
-76.863067841402213
 30
0.0
 11
-253.62750000003771
 21
-75.243067841402265
 31
0.0
  0
LINE
  5
417
  8
DATA
  6
CONTINUOUS
 62
     7
 10
-252.24750000003769
 20
-73.86306784140227
 30
0.0
 11
-250.62750000003771
 21
-72.243067841402222
 31
0.0
  0
LINE
  5
418
  8
DATA
  6
CONTINUOUS
 62
     7
 10
-249.24750000003769
 20
-70.863067841402255
 30
0.0
 11
-248.1179649757924
 21
-69.733532817156942
 31
0.0
  0
LINE
  5
419
  8
DATA
  6
CONTINUOUS
 62
     7
 10
-255.24750000003769
 20
-77.663067853323156
 30
0.0
 11
-253.62750000003771
 21
-76.04306785332318
 31
0.0
  0
LINE
  5
41A
  8
DATA
  6
CONTINUOUS
 62
     7
 10
-252.24750000003769
 20
-74.663067853323184
 30
0.0
 11
-250.62750000003771
 21
-73.043067853323151
 31
0.0
  0
LINE
  5
41B
  8
DATA
  6
CONTINUOUS
 62
     7
 10
-249.24750000003769
 20
-71.663067853323184
 30
0.0
 11
-247.6275000000378
 21
-70.043067853323237
 31
0.0
  0
LINE
  5
41C
  8
DATA
  6
CONTINUOUS
 62
     7
 10
-255.24750000003769
 20
-78.463067865244042
 30
0.0
 11
-253.62750000003771
 21
-76.843067865244109
 31
0.0
  0
LINE
  5
41D
  8
DATA
  6
CONTINUOUS
 62
     7
 10
-252.24750000003769
 20
-75.463067865244142
 30
0.0
 11
-250.62750000003771
 21
-73.843067865244052
 31
0.0
  0
LINE
  5
41E
  8
DATA
  6
CONTINUOUS
 62
     7
 10
-249.24750000003769
 20
-72.463067865244113
 30
0.0
 11
-247.62750000003771
 21
-70.843067865244166
 31
0.0
  0
LINE
  5
41F
  8
DATA
  6
CONTINUOUS
 62
     7
 10
-255.24750000003769
 20
-79.263067877164985
 30
0.0
 11
-253.62750000003771
 21
-77.643067877165009
 31
0.0
  0
LINE
  5
420
  8
DATA
  6
CONTINUOUS
 62
     7
 10
-252.24750000003769
 20
-76.263067877165057
 30
0.0
 11
-250.62750000003771
 21
-74.643067877165009
 31
0.0
  0
LINE
  5
421
  8
DATA
  6
CONTINUOUS
 62
     7
 10
-249.24750000003769
 20
-73.263067877165057
 30
0.0
 11
-247.62750000003771
 21
-71.643067877165095
 31
0.0
  0
LINE
  5
422
  8
DATA
  6
CONTINUOUS
 62
     7
 10
-255.1673616408174
 20
-79.982929529865558
 30
0.0
 11
-253.62750000003771
 21
-78.443067889085953
 31
0.0
  0
LINE
  5
423
  8
DATA
  6
CONTINUOUS
 62
     7
 10
-252.24750000003769
 20
-77.063067889085971
 30
0.0
 11
-250.62750000003771
 21
-75.443067889085953
 31
0.0
  0
LINE
  5
424
  8
DATA
  6
CONTINUOUS
 62
     7
 10
-249.24750000003769
 20
-74.063067889085971
 30
0.0
 11
-247.6275000000378
 21
-72.443067889086024
 31
0.0
  0
LINE
  5
425
  8
DATA
  6
CONTINUOUS
 62
     7
 10
-246.24750000003769
 20
-71.063067889086014
 30
0.0
 11
-246.00510328680829
 21
-70.820671175856575
 31
0.0
  0
LINE
  5
426
  8
DATA
  6
CONTINUOUS
 62
     7
 10
-254.8009621909616
 20
-80.416530091930724
 30
0.0
 11
-253.62750000003771
 21
-79.24306790100691
 31
0.0
  0
LINE
  5
427
  8
DATA
  6
CONTINUOUS
 62
     7
 10
-252.24750000003769
 20
-77.863067901006914
 30
0.0
 11
-250.62750000003771
 21
-76.243067901006853
 31
0.0
  0
LINE
  5
428
  8
DATA
  6
CONTINUOUS
 62
     7
 10
-249.24750000003769
 20
-74.863067901006914
 30
0.0
 11
-247.6275000000378
 21
-73.243067901006938
 31
0.0
  0
LINE
  5
429
  8
DATA
  6
CONTINUOUS
 62
     7
 10
-246.24750000003769
 20
-71.863067901006914
 30
0.0
 11
-245.5715027247432
 21
-71.187070625712352
 31
0.0
  0
LINE
  5
42A
  8
DATA
  6
CONTINUOUS
 62
     7
 10
-254.39976867406961
 20
-80.815336586959646
 30
0.0
 11
-253.62750000003771
 21
-80.043067912927796
 31
0.0
  0
LINE
  5
42B
  8
DATA
  6
CONTINUOUS
 62
     7
 10
-252.24750000003769
 20
-78.663067912927843
 30
0.0
 11
-250.62750000003771
 21
-77.043067912927782
 31
0.0
  0
LINE
  5
42C
  8
DATA
  6
CONTINUOUS
 62
     7
 10
-249.24750000003769
 20
-75.663067912927815
 30
0.0
 11
-247.6275000000378
 21
-74.043067912927881
 31
0.0
  0
LINE
  5
42D
  8
DATA
  6
CONTINUOUS
 62
     7
 10
-246.24750000003769
 20
-72.663067912927843
 30
0.0
 11
-245.17269622971421
 21
-71.588264142604373
 31
0.0
  0
LINE
  5
42E
  8
DATA
  6
CONTINUOUS
 62
     7
 10
-253.96375387433699
 20
-81.179321799147999
 30
0.0
 11
-253.62750000003771
 21
-80.843067924848725
 31
0.0
  0
LINE
  5
42F
  8
DATA
  6
CONTINUOUS
 62
     7
 10
-252.24750000003769
 20
-79.463067924848772
 30
0.0
 11
-250.62750000003771
 21
-77.843067924848697
 31
0.0
  0
LINE
  5
430
  8
DATA
  6
CONTINUOUS
 62
     7
 10
-249.24750000003769
 20
-76.463067924848744
 30
0.0
 11
-247.62750000003771
 21
-74.843067924848754
 31
0.0
  0
LINE
  5
431
  8
DATA
  6
CONTINUOUS
 62
     7
 10
-246.24750000003769
 20
-73.463067924848772
 30
0.0
 11
-244.80871101752589
 21
-72.024278942336906
 31
0.0
  0
LINE
  5
432
  8
DATA
  6
CONTINUOUS
 62
     7
 10
-252.24750000003769
 20
-80.263067936769687
 30
0.0
 11
-250.62750000003771
 21
-78.643067936769626
 31
0.0
  0
LINE
  5
433
  8
DATA
  6
CONTINUOUS
 62
     7
 10
-249.24750000003769
 20
-77.26306793676963
 30
0.0
 11
-247.6275000000378
 21
-75.643067936769739
 31
0.0
  0
LINE
  5
434
  8
DATA
  6
CONTINUOUS
 62
     7
 10
-246.24750000003769
 20
-74.263067936769687
 30
0.0
 11
-244.62750000003771
 21
-72.643067936769683
 31
0.0
  0
LINE
  5
435
  8
DATA
  6
CONTINUOUS
 62
     7
 10
-252.2475000000378
 20
-81.063067948690616
 30
0.0
 11
-250.62750000003771
 21
-79.443067948690555
 31
0.0
  0
LINE
  5
436
  8
DATA
  6
CONTINUOUS
 62
     7
 10
-249.24750000003769
 20
-78.063067948690602
 30
0.0
 11
-247.61653625040799
 21
-76.432104199060902
 31
0.0
  0
LINE
  5
437
  8
DATA
  6
CONTINUOUS
 62
     7
 10
-246.24750000003769
 20
-75.063067948690602
 30
0.0
 11
-244.62750000003771
 21
-73.443067948690612
 31
0.0
  0
LINE
  5
438
  8
DATA
  6
CONTINUOUS
 62
     7
 10
-252.24750000003769
 20
-81.863067960611517
 30
0.0
 11
-250.62750000003771
 21
-80.243067960611484
 31
0.0
  0
LINE
  5
439
  8
DATA
  6
CONTINUOUS
 62
     7
 10
-249.24750000003769
 20
-78.863067960611474
 30
0.0
 11
-247.62750000003771
 21
-77.24306796061154
 31
0.0
  0
LINE
  5
43A
  8
DATA
  6
CONTINUOUS
 62
     7
 10
-246.24750000003769
 20
-75.863067960611545
 30
0.0
 11
-244.62750000003771
 21
-74.243067960611484
 31
0.0
  0
LINE
  5
43B
  8
DATA
  6
CONTINUOUS
 62
     7
 10
-251.8395824129997
 20
-82.255150385494517
 30
0.0
 11
-250.62750000003771
 21
-81.043067972532427
 31
0.0
  0
LINE
  5
43C
  8
DATA
  6
CONTINUOUS
 62
     7
 10
-249.24750000003769
 20
-79.663067972532431
 30
0.0
 11
-247.62750000003771
 21
-78.043067972532484
 31
0.0
  0
LINE
  5
43D
  8
DATA
  6
CONTINUOUS
 62
     7
 10
-246.24750000003769
 20
-76.66306797253246
 30
0.0
 11
-244.62750000003771
 21
-75.043067972532455
 31
0.0
  0
LINE
  5
43E
  8
DATA
  6
CONTINUOUS
 62
     7
 10
-251.1939393448848
 20
-82.409507329300482
 30
0.0
 11
-250.62750000003771
 21
-81.843067984453342
 31
0.0
  0
LINE
  5
43F
  8
DATA
  6
CONTINUOUS
 62
     7
 10
-249.24750000003769
 20
-80.463067984453346
 30
0.0
 11
-247.6275000000378
 21
-78.843067984453398
 31
0.0
  0
LINE
  5
440
  8
DATA
  6
CONTINUOUS
 62
     7
 10
-246.24750000003769
 20
-77.463067984453374
 30
0.0
 11
-244.62750000003771
 21
-75.843067984453384
 31
0.0
  0
LINE
  5
441
  8
DATA
  6
CONTINUOUS
 62
     7
 10
-249.24750000003769
 20
-81.263067996374261
 30
0.0
 11
-247.6275000000378
 21
-79.643067996374313
 31
0.0
  0
LINE
  5
442
  8
DATA
  6
CONTINUOUS
 62
     7
 10
-246.24750000003769
 20
-78.263067996374346
 30
0.0
 11
-244.62750000003771
 21
-76.643067996374313
 31
0.0
  0
LINE
  5
443
  8
DATA
  6
CONTINUOUS
 62
     7
 10
-249.24750000003769
 20
-82.063068008295204
 30
0.0
 11
-247.62750000003771
 21
-80.443068008295256
 31
0.0
  0
LINE
  5
444
  8
DATA
  6
CONTINUOUS
 62
     7
 10
-246.24750000003769
 20
-79.063068008295275
 30
0.0
 11
-244.62750000003771
 21
-77.443068008295228
 31
0.0
  0
LINE
  5
445
  8
DATA
  6
CONTINUOUS
 62
     7
 10
-248.79114884940739
 20
-82.406716869585864
 30
0.0
 11
-247.6275000000378
 21
-81.243068020216214
 31
0.0
  0
LINE
  5
446
  8
DATA
  6
CONTINUOUS
 62
     7
 10
-246.24750000003769
 20
-79.86306802021619
 30
0.0
 11
-244.62750000003771
 21
-78.243068020216185
 31
0.0
  0
LINE
  5
447
  8
DATA
  6
CONTINUOUS
 62
     7
 10
-247.67688719575051
 20
-82.092455227849896
 30
0.0
 11
-247.6275000000378
 21
-82.043068032137143
 31
0.0
  0
LINE
  5
448
  8
DATA
  6
CONTINUOUS
 62
     7
 10
-246.24750000003769
 20
-80.663068032137133
 30
0.0
 11
-244.62750000003771
 21
-79.0430680321371
 31
0.0
  0
LINE
  5
449
  8
DATA
  6
CONTINUOUS
 62
     7
 10
-244.62750000003771
 20
-73.021140449431243
 30
0.0
 11
-246.24750000003769
 21
-71.401140449431239
 31
0.0
  0
LINE
  5
44A
  8
DATA
  6
CONTINUOUS
 62
     7
 10
-247.6275000000378
 20
-70.021140449431186
 30
0.0
 11
-247.81626624670349
 21
-69.832374202765521
 31
0.0
  0
LINE
  5
44B
  8
DATA
  6
CONTINUOUS
 62
     7
 10
-247.6275000000378
 20
-70.821140449431198
 30
0.0
 11
-248.89859984973421
 21
-69.550040599734757
 31
0.0
  0
LINE
  5
44C
  8
DATA
  6
CONTINUOUS
 62
     7
 10
-244.62750000003771
 20
-74.621140449431238
 30
0.0
 11
-246.24750000003769
 21
-73.001140449431205
 31
0.0
  0
LINE
  5
44D
  8
DATA
  6
CONTINUOUS
 62
     7
 10
-247.6275000000378
 20
-71.621140449431195
 30
0.0
 11
-249.24750000003769
 21
-70.001140449431261
 31
0.0
  0
LINE
  5
44E
  8
DATA
  6
CONTINUOUS
 62
     7
 10
-244.62750000003771
 20
-75.421140449431221
 30
0.0
 11
-246.24750000003769
 21
-73.801140449431173
 31
0.0
  0
LINE
  5
44F
  8
DATA
  6
CONTINUOUS
 62
     7
 10
-247.6275000000378
 20
-72.421140449431178
 30
0.0
 11
-249.24750000003769
 21
-70.801140449431216
 31
0.0
  0
LINE
  5
450
  8
DATA
  6
CONTINUOUS
 62
     7
 10
-250.00000000003769
 20
-70.048640449431218
 30
0.0
 11
-250.0165363159731
 21
-70.032104133495821
 31
0.0
  0
LINE
  5
451
  8
DATA
  6
CONTINUOUS
 62
     7
 10
-244.62750000003771
 20
-76.221140449431232
 30
0.0
 11
-246.24750000003769
 21
-74.601140449431199
 31
0.0
  0
LINE
  5
452
  8
DATA
  6
CONTINUOUS
 62
     7
 10
-247.6275000000378
 20
-73.221140449431175
 30
0.0
 11
-249.24750000003769
 21
-71.601140449431213
 31
0.0
  0
LINE
  5
453
  8
DATA
  6
CONTINUOUS
 62
     7
 10
-250.62750000003771
 20
-70.22114044943126
 30
0.0
 11
-251.26789089192479
 21
-69.580749557544095
 31
0.0
  0
LINE
  5
454
  8
DATA
  6
CONTINUOUS
 62
     7
 10
-244.62750000003771
 20
-77.021140449431186
 30
0.0
 11
-246.24750000003769
 21
-75.401140449431196
 31
0.0
  0
LINE
  5
455
  8
DATA
  6
CONTINUOUS
 62
     7
 10
-247.62750000003771
 20
-74.021140449431186
 30
0.0
 11
-249.24750000003769
 21
-72.401140449431253
 31
0.0
  0
LINE
  5
456
  8
DATA
  6
CONTINUOUS
 62
     7
 10
-250.62750000003771
 20
-71.021140449431243
 30
0.0
 11
-251.90741449789169
 21
-69.741225951577249
 31
0.0
  0
LINE
  5
457
  8
DATA
  6
CONTINUOUS
 62
     7
 10
-244.62750000003771
 20
-77.821140449431198
 30
0.0
 11
-246.24750000003769
 21
-76.201140449431193
 31
0.0
  0
LINE
  5
458
  8
DATA
  6
CONTINUOUS
 62
     7
 10
-244.62750000003771
 20
-78.621140449431223
 30
0.0
 11
-246.24750000003769
 21
-77.001140449431205
 31
0.0
  0
LINE
  5
459
  8
DATA
  6
CONTINUOUS
 62
     7
 10
-247.62750000003771
 20
-75.621140449431223
 30
0.0
 11
-249.24750000003769
 21
-74.001140449431261
 31
0.0
  0
LINE
  5
45A
  8
DATA
  6
CONTINUOUS
 62
     7
 10
-250.62750000003771
 20
-72.621140449431238
 30
0.0
 11
-252.24750000003769
 21
-71.001140449431205
 31
0.0
  0
LINE
  5
45B
  8
DATA
  6
CONTINUOUS
 62
     7
 10
-244.62750000003771
 20
-79.421140449431221
 30
0.0
 11
-246.24750000003769
 21
-77.801140449431216
 31
0.0
  0
LINE
  5
45C
  8
DATA
  6
CONTINUOUS
 62
     7
 10
-247.61653625040799
 20
-76.432104199060902
 30
0.0
 11
-249.24750000003769
 21
-74.801140449431216
 31
0.0
  0
LINE
  5
45D
  8
DATA
  6
CONTINUOUS
 62
     7
 10
-250.62750000003771
 20
-73.421140449431263
 30
0.0
 11
-252.24750000003769
 21
-71.801140449431216
 31
0.0
  0
LINE
  5
45E
  8
DATA
  6
CONTINUOUS
 62
     7
 10
-244.8470888644201
 20
-80.001551585048759
 30
0.0
 11
-246.24750000003769
 21
-78.601140449431199
 31
0.0
  0
LINE
  5
45F
  8
DATA
  6
CONTINUOUS
 62
     7
 10
-245.2149364157556
 20
-80.433704033713326
 30
0.0
 11
-246.24750000003769
 21
-79.401140449431153
 31
0.0
  0
LINE
  5
460
  8
DATA
  6
CONTINUOUS
 62
     7
 10
-247.62750000003771
 20
-78.021140449431186
 30
0.0
 11
-249.24750000003769
 21
-76.401140449431253
 31
0.0
  0
LINE
  5
461
  8
DATA
  6
CONTINUOUS
 62
     7
 10
-250.62750000003771
 20
-75.021140449431243
 30
0.0
 11
-252.24750000003769
 21
-73.401140449431196
 31
0.0
  0
LINE
  5
462
  8
DATA
  6
CONTINUOUS
 62
     7
 10
-253.62750000003771
 20
-72.021140449431186
 30
0.0
 11
-254.44567121711481
 21
-71.20296923235405
 31
0.0
  0
LINE
  5
463
  8
DATA
  6
CONTINUOUS
 62
     7
 10
-245.61756350398119
 20
-80.831076945487695
 30
0.0
 11
-246.24750000003769
 21
-80.201140449431165
 31
0.0
  0
LINE
  5
464
  8
DATA
  6
CONTINUOUS
 62
     7
 10
-247.6275000000378
 20
-78.821140449431141
 30
0.0
 11
-249.24750000003769
 21
-77.201140449431193
 31
0.0
  0
LINE
  5
465
  8
DATA
  6
CONTINUOUS
 62
     7
 10
-250.62750000003771
 20
-75.821140449431198
 30
0.0
 11
-252.24750000003769
 21
-74.201140449431193
 31
0.0
  0
LINE
  5
466
  8
DATA
  6
CONTINUOUS
 62
     7
 10
-253.62750000003771
 20
-72.821140449431198
 30
0.0
 11
-254.8430441288892
 21
-71.605596320579707
 31
0.0
  0
LINE
  5
467
  8
DATA
  6
CONTINUOUS
 62
     7
 10
-246.05503003916019
 20
-81.193610410308736
 30
0.0
 11
-246.24750000003769
 21
-81.001140449431176
 31
0.0
  0
LINE
  5
468
  8
DATA
  6
CONTINUOUS
 62
     7
 10
-247.6275000000378
 20
-80.421140449431149
 30
0.0
 11
-249.24750000003769
 21
-78.801140449431202
 31
0.0
  0
LINE
  5
469
  8
DATA
  6
CONTINUOUS
 62
     7
 10
-250.62750000003771
 20
-77.421140449431221
 30
0.0
 11
-252.24750000003769
 21
-75.801140449431173
 31
0.0
  0
LINE
  5
46A
  8
DATA
  6
CONTINUOUS
 62
     7
 10
-253.62750000003771
 20
-74.421140449431164
 30
0.0
 11
-255.24750000003769
 21
-72.801140449431216
 31
0.0
  0
LINE
  5
46B
  8
DATA
  6
CONTINUOUS
 62
     7
 10
-247.62750000003771
 20
-81.221140449431175
 30
0.0
 11
-249.24750000003769
 21
-79.601140449431199
 31
0.0
  0
LINE
  5
46C
  8
DATA
  6
CONTINUOUS
 62
     7
 10
-250.62750000003771
 20
-78.221140449431232
 30
0.0
 11
-252.24750000003769
 21
-76.601140449431171
 31
0.0
  0
LINE
  5
46D
  8
DATA
  6
CONTINUOUS
 62
     7
 10
-253.62750000003771
 20
-75.221140449431203
 30
0.0
 11
-255.24750000003769
 21
-73.601140449431242
 31
0.0
  0
LINE
  5
46E
  8
DATA
  6
CONTINUOUS
 62
     7
 10
-247.6275000000378
 20
-82.021140449431144
 30
0.0
 11
-249.24750000003769
 21
-80.401140449431196
 31
0.0
  0
LINE
  5
46F
  8
DATA
  6
CONTINUOUS
 62
     7
 10
-250.62750000003771
 20
-79.021140449431215
 30
0.0
 11
-252.2475000000378
 21
-77.401140449431153
 31
0.0
  0
LINE
  5
470
  8
DATA
  6
CONTINUOUS
 62
     7
 10
-253.62750000003771
 20
-76.021140449431186
 30
0.0
 11
-255.24750000003769
 21
-74.401140449431253
 31
0.0
  0
LINE
  5
471
  8
DATA
  6
CONTINUOUS
 62
     7
 10
-248.18602910710251
 20
-82.262611342366426
 30
0.0
 11
-249.24750000003769
 21
-81.201140449431193
 31
0.0
  0
LINE
  5
472
  8
DATA
  6
CONTINUOUS
 62
     7
 10
-250.62750000003771
 20
-79.821140449431198
 30
0.0
 11
-252.24750000003769
 21
-78.201140449431136
 31
0.0
  0
LINE
  5
473
  8
DATA
  6
CONTINUOUS
 62
     7
 10
-253.62750000003771
 20
-76.821140449431184
 30
0.0
 11
-255.24750000003769
 21
-75.201140449431222
 31
0.0
  0
LINE
  5
474
  8
DATA
  6
CONTINUOUS
 62
     7
 10
-248.83400102668961
 20
-82.414639422779317
 30
0.0
 11
-249.24750000003769
 21
-82.001140449431205
 31
0.0
  0
LINE
  5
475
  8
DATA
  6
CONTINUOUS
 62
     7
 10
-250.62750000003771
 20
-80.621140449431238
 30
0.0
 11
-252.2475000000378
 21
-79.001140449431176
 31
0.0
  0
LINE
  5
476
  8
DATA
  6
CONTINUOUS
 62
     7
 10
-253.62750000003771
 20
-77.621140449431223
 30
0.0
 11
-255.26060763283269
 21
-75.988032816636192
 31
0.0
  0
LINE
  5
477
  8
DATA
  6
CONTINUOUS
 62
     7
 10
-256.41653632789399
 20
-74.832104121574901
 30
0.0
 11
-256.42660660618083
 21
-74.822033843288096
 31
0.0
  0
LINE
  5
478
  8
DATA
  6
CONTINUOUS
 62
     7
 10
-250.62750000003771
 20
-81.421140449431178
 30
0.0
 11
-252.24750000003769
 21
-79.801140449431145
 31
0.0
  0
LINE
  5
479
  8
DATA
  6
CONTINUOUS
 62
     7
 10
-253.62750000003771
 20
-78.421140449431178
 30
0.0
 11
-255.24750000003769
 21
-76.801140449431216
 31
0.0
  0
LINE
  5
47A
  8
DATA
  6
CONTINUOUS
 62
     7
 10
-250.62750000003771
 20
-82.221140449431246
 30
0.0
 11
-252.24750000003769
 21
-80.601140449431142
 31
0.0
  0
LINE
  5
47B
  8
DATA
  6
CONTINUOUS
 62
     7
 10
-253.62750000003771
 20
-79.221140449431175
 30
0.0
 11
-255.24750000003769
 21
-77.601140449431213
 31
0.0
  0
LINE
  5
47C
  8
DATA
  6
CONTINUOUS
 62
     7
 10
-251.2497640062256
 20
-82.398876443243296
 30
0.0
 11
-252.24750000003769
 21
-81.401140449431125
 31
0.0
  0
LINE
  5
47D
  8
DATA
  6
CONTINUOUS
 62
     7
 10
-253.62750000003771
 20
-80.021140449431186
 30
0.0
 11
-255.24750000003769
 21
-78.401140449431253
 31
0.0
  0
LINE
  5
47E
  8
DATA
  6
CONTINUOUS
 62
     7
 10
-253.62750000003771
 20
-80.821140449431198
 30
0.0
 11
-255.24750000003769
 21
-79.201140449431193
 31
0.0
  0
LINE
  5
47F
  8
DATA
  6
CONTINUOUS
 62
     7
 10
-244.62750000003771
 20
-73.872500000291041
 30
0.0
 11
-246.24750000003769
 21
-72.252500000291008
 31
0.0
  0
LINE
  5
480
  8
DATA
  6
CONTINUOUS
 62
     7
 10
-247.6275000000378
 20
-74.872500000290984
 30
0.0
 11
-249.24750000003769
 21
-73.252500000290993
 31
0.0
  0
LINE
  5
481
  8
DATA
  6
CONTINUOUS
 62
     7
 10
-247.62750000003771
 20
-79.588523071121983
 30
0.0
 11
-249.24750000003769
 21
-77.968523071121993
 31
0.0
  0
LINE
  5
482
  8
DATA
  6
CONTINUOUS
 62
     7
 10
-247.62750000003771
 20
-77.228950109178186
 30
0.0
 11
-249.24750000003769
 21
-75.608950109178238
 31
0.0
  0
LINE
  5
483
  8
DATA
  6
CONTINUOUS
 62
     7
 10
-250.62750000003771
 20
-71.872500000291055
 30
0.0
 11
-252.2475000000378
 21
-70.252500000290979
 31
0.0
  0
LINE
  5
484
  8
DATA
  6
CONTINUOUS
 62
     7
 10
-250.62750000003771
 20
-74.21234166193122
 30
0.0
 11
-252.24750000003769
 21
-72.592341661931187
 31
0.0
  0
LINE
  5
485
  8
DATA
  6
CONTINUOUS
 62
     7
 10
-250.62750000003771
 20
-76.614097871105884
 30
0.0
 11
-252.24750000003769
 21
-74.994097871105865
 31
0.0
  0
LINE
  5
486
  8
DATA
  6
CONTINUOUS
 62
     7
 10
-253.62750000003771
 20
-73.638072907661524
 30
0.0
 11
-255.19489479729791
 21
-72.070678110401374
 31
0.0
  0
ARC
  5
487
  8
DATA
  6
CONTINUOUS
 62
     7
 10
-77.937623762057584
 20
-75.985580549468423
 30
0.0
 40
7.0624999972254816
 50
90.370972128561007
 51
269.62902787143901
  0
LINE
  5
488
  8
DATA
  6
CONTINUOUS
 62
     7
 10
-77.000123333540415
 20
-68.985580549468409
 30
0.0
 11
-77.98335090589886
 21
-68.923228587187992
 31
0.0
  0
LINE
  5
489
  8
DATA
  6
CONTINUOUS
 62
     7
 10
-77.000123333540415
 20
-82.985580549468423
 30
0.0
 11
-77.98335090589886
 21
-83.047932511748854
 31
0.0
  0
LINE
  5
48A
  8
DATA
  6
STYLE_02
 62
     7
 10
140.90319753463751
 20
-83.970922506105694
 30
0.0
 11
130.0137531043647
 21
-94.860366936378426
 31
0.0
  0
LINE
  5
48B
  8
DATA
  6
STYLE_02
 62
     7
 10
124.4983202111096
 20
-89.344934043123459
 30
0.0
 11
138.1032271460729
 21
-75.740027108160191
 31
0.0
  0
LINE
  5
48C
  8
DATA
  6
STYLE_01
 62
     7
 10
130.54408319025461
 20
-95.390697022268299
 30
0.0
 11
123.9679901252197
 21
-88.814603957233544
 31
0.0
  0
LINE
  5
48D
  8
DATA
  6
STYLE_01
 62
     7
 10
108.0934428875817
 20
-115.3664635907881
 30
0.0
 11
103.9922235566997
 21
-111.2652442599062
 31
0.0
  0
LINE
  5
48E
  8
DATA
  6
STYLE_01
 62
     7
 10
130.54408319025461
 20
-95.390697022268299
 30
0.0
 11
120.8606469313732
 21
-105.0741332811495
 31
0.0
  0
ARC
  5
48F
  8
DATA
  6
STYLE_01
 62
     7
 10
-11.76201021082651
 20
47.429647657377842
 30
0.0
 40
202.15811503610229
 50
306.36163156084439
 51
310.57378918524461
  0
ARC
  5
490
  8
DATA
  6
STYLE_01
 62
     7
 10
106.71851130763839
 20
-90.931997657414911
 30
0.0
 40
20.000000000005311
 50
310.57378918524631
 51
315.0000000000004
  0
LINE
  5
491
  8
DATA
  6
STYLE_01
 62
     7
 10
123.9679901252197
 20
-88.814603957233544
 30
0.0
 11
114.2845538663384
 21
-98.498040216114717
 31
0.0
  0
ARC
  5
492
  8
DATA
  6
STYLE_01
 62
     7
 10
266.78833480486639
 20
-231.120697358315
 30
0.0
 40
202.1581150361032
 50
139.42621081475539
 51
143.6383684391555
  0
ARC
  5
493
  8
DATA
  6
STYLE_01
 62
     7
 10
128.42668949007319
 20
-112.64017583984941
 30
0.0
 40
20.000000000005411
 50
135.00000000000031
 51
139.42621081475451
  0
LINE
  5
494
  8
DATA
  6
STYLE_01
 62
     7
 10
108.0934428875817
 20
-115.3664635907881
 30
0.0
 11
13.18328971047187
 21
-210.27661676789799
 31
0.0
  0
LINE
  5
495
  8
DATA
  6
STYLE_01
 62
     7
 10
103.9922235566997
 20
-111.2652442599062
 30
0.0
 11
9.1119872171084477
 21
-206.1454805994974
 31
0.0
  0
LINE
  5
496
  8
DATA
  6
STYLE_01
 62
     7
 10
-11.33862646956973
 20
-240.59334052418211
 30
0.0
 11
-21.23812140618141
 21
-230.69384558757039
 31
0.0
  0
ARC
  5
497
  8
DATA
  6
STYLE_01
 62
     7
 10
118.8852635764285
 20
-330.55326426940678
 30
0.0
 40
158.27523311926899
 50
139.9243864255447
 51
145.36290810698361
  0
LINE
  5
498
  8
DATA
  6
STYLE_01
 62
     7
 10
5.5112387280006203
 20
-218.88940620537861
 30
0.0
 11
-2.2262303087674549
 21
-228.65598526817399
 31
0.0
  0
ARC
  5
499
  8
DATA
  6
STYLE_01
 62
     7
 10
-111.1980451514026
 20
-100.4699555415726
 30
0.0
 40
158.2752331192664
 50
304.63709189301551
 51
310.07561357445451
  0
LINE
  5
49A
  8
DATA
  6
STYLE_01
 62
     7
 10
0.4991977796278206
 20
-213.81753158196881
 30
0.0
 11
-9.3007661501732155
 21
-221.5814494267681
 31
0.0
  0
ARC
  5
49B
  8
DATA
  6
STYLE_01
 62
     7
 10
83.893967829126552
 20
-280.9872948865526
 30
0.0
 40
99.999999999999844
 50
135.0
 51
141.61234673645569
  0
ARC
  5
49C
  8
DATA
  6
STYLE_01
 62
     7
 10
-61.598690901546142
 20
-135.43480248084251
 30
0.0
 40
100.0
 50
308.38765326354411
 51
314.99999999999989
  0
LINE
  5
49D
  8
DATA
  6
STYLE_01
 62
     7
 10
-8.8862515873687045
 20
-235.97464759451759
 30
0.0
 11
-11.975022572637631
 21
-232.8858766092487
 31
0.0
  0
LINE
  5
49E
  8
DATA
  6
STYLE_01
 62
     7
 10
-13.53065749124803
 20
-231.3302416906383
 30
0.0
 11
-16.61942847651687
 21
-228.24147070536949
 31
0.0
  0
LINE
  5
49F
  8
DATA
  6
STYLE_01
 62
     7
 10
-13.530657491248011
 20
-231.33024169063839
 30
0.0
 11
-12.964972066298751
 21
-230.76455626568909
 31
0.0
  0
LINE
  5
4A0
  8
DATA
  6
STYLE_01
 62
     7
 10
-12.399286641349519
 20
-230.1988708407398
 30
0.0
 11
-11.833601216400281
 21
-229.63318541579051
 31
0.0
  0
LINE
  5
4A1
  8
DATA
  6
STYLE_01
 62
     7
 10
-11.26791579145107
 20
-229.06749999084141
 30
0.0
 11
-10.70223036650178
 21
-228.50181456589209
 31
0.0
  0
LINE
  5
4A2
  8
DATA
  6
STYLE_01
 62
     7
 10
-9.1465954478913982
 20
-230.05744948450251
 30
0.0
 11
-9.7122808728406795
 21
-230.62313490945181
 31
0.0
  0
LINE
  5
4A3
  8
DATA
  6
STYLE_01
 62
     7
 10
-10.27796629778989
 20
-231.1888203344009
 30
0.0
 11
-10.84365172273912
 21
-231.7545057593502
 31
0.0
  0
LINE
  5
4A4
  8
DATA
  6
STYLE_01
 62
     7
 10
-11.40933714768836
 20
-232.3201911842994
 30
0.0
 11
-11.975022572637609
 21
-232.8858766092487
 31
0.0
  0
LINE
  5
4A5
  8
DATA
  6
STYLE_01
 62
     7
 10
-8.4039135463307844
 20
-235.32561478565711
 30
0.0
 11
-11.409337147688371
 21
-232.3201911842994
 31
0.0
  0
LINE
  5
4A6
  8
DATA
  6
STYLE_01
 62
     7
 10
-12.96497206629877
 20
-230.76455626568901
 30
0.0
 11
-15.970395667656289
 21
-227.7591326643315
 31
0.0
  0
LINE
  5
4A7
  8
DATA
  6
STYLE_01
 62
     7
 10
-7.9186259282381126
 20
-234.67953155385121
 30
0.0
 11
-10.843651722739139
 21
-231.7545057593502
 31
0.0
  0
LINE
  5
4A8
  8
DATA
  6
STYLE_01
 62
     7
 10
-12.39928664134953
 20
-230.1988708407398
 30
0.0
 11
-15.32431243585053
 21
-227.27384504623879
 31
0.0
  0
LINE
  5
4A9
  8
DATA
  6
STYLE_01
 62
     7
 10
-7.4303951468151146
 20
-234.03639148537579
 30
0.0
 11
-10.2779662977899
 21
-231.1888203344009
 31
0.0
  0
LINE
  5
4AA
  8
DATA
  6
STYLE_01
 62
     7
 10
-11.83360121640029
 20
-229.63318541579051
 30
0.0
 11
-14.681172367375099
 21
-226.78561426481579
 31
0.0
  0
LINE
  5
4AB
  8
DATA
  6
STYLE_01
 62
     7
 10
-6.9392273634206978
 20
-233.3961884188717
 30
0.0
 11
-9.7122808728406635
 21
-230.62313490945169
 31
0.0
  0
LINE
  5
4AC
  8
DATA
  6
STYLE_01
 62
     7
 10
-11.26791579145106
 20
-229.0674999908413
 30
0.0
 11
-14.04096930087095
 21
-226.2944464814214
 31
0.0
  0
LINE
  5
4AD
  8
DATA
  6
STYLE_01
 62
     7
 10
-6.4451284895593801
 20
-232.75891644283459
 30
0.0
 11
-9.1465954478914142
 21
-230.05744948450251
 31
0.0
  0
LINE
  5
4AE
  8
DATA
  6
STYLE_01
 62
     7
 10
-10.702230366501819
 20
-228.50181456589209
 30
0.0
 11
-13.403697324833811
 21
-225.8003476075601
 31
0.0
  0
ARC
  5
4AF
  8
DATA
  6
STYLE_01
 62
     7
 10
118.39028882959791
 20
-330.05828952257627
 30
0.0
 40
158.2752331192689
 50
142.06639275449879
 51
142.35830349622839
  0
ARC
  5
4B0
  8
DATA
  6
STYLE_01
 62
     7
 10
118.39028882959791
 20
-330.05828952257627
 30
0.0
 40
158.2752331192689
 50
142.6504064232318
 51
142.94270952308179
  0
ARC
  5
4B1
  8
DATA
  6
STYLE_01
 62
     7
 10
118.39028882959791
 20
-330.05828952257627
 30
0.0
 40
158.27523311926879
 50
143.23522083162069
 51
143.5279484350848
  0
ARC
  5
4B2
  8
DATA
  6
STYLE_01
 62
     7
 10
-110.703070404572
 20
-100.9649302884032
 30
0.0
 40
158.2752331192664
 50
306.4720515649143
 51
306.76477916837848
  0
ARC
  5
4B3
  8
DATA
  6
STYLE_01
 62
     7
 10
-110.703070404572
 20
-100.9649302884032
 30
0.0
 40
158.2752331192664
 50
307.05729047691739
 51
307.34959357676729
  0
ARC
  5
4B4
  8
DATA
  6
STYLE_01
 62
     7
 10
-110.703070404572
 20
-100.9649302884032
 30
0.0
 40
158.2752331192664
 50
307.64169650377079
 51
307.9336072455003
  0
LINE
  5
4B5
  8
DATA
  6
STYLE_01
 62
     7
 10
13.18328971047187
 20
-210.27661676789799
 30
0.0
 11
9.0820640508625754
 21
-206.17539110828861
 31
0.0
  0
LINE
  5
4B6
  8
DATA
  6
STYLE_01
 62
     7
 10
140.9031975346376
 20
-83.970922506105737
 30
0.0
 11
134.14342917142841
 21
-79.699825082804992
 31
0.0
  0
LINE
  5
4B7
  8
DATA
  6
STYLE_01
 62
     7
 10
140.3375121096883
 20
-84.536607931054974
 30
0.0
 11
133.57774374647909
 21
-80.2655105077542
 31
0.0
  0
LINE
  5
4B8
  8
DATA
  6
STYLE_01
 62
     7
 10
138.9232985473152
 20
-85.950821493428066
 30
0.0
 11
132.16353018410601
 21
-81.679724070127264
 31
0.0
  0
LINE
  5
4B9
  8
DATA
  6
STYLE_01
 62
     7
 10
138.35761312236599
 20
-86.516506918377317
 30
0.0
 11
131.59784475915669
 21
-82.245409495076501
 31
0.0
  0
LINE
  5
4BA
  8
DATA
  6
STYLE_01
 62
     7
 10
136.9433995599928
 20
-87.930720480750367
 30
0.0
 11
130.18363119678369
 21
-83.659623057449565
 31
0.0
  0
LINE
  5
4BB
  8
DATA
  6
STYLE_01
 62
     7
 10
136.37771413504359
 20
-88.496405905699675
 30
0.0
 11
129.6179457718344
 21
-84.225308482398816
 31
0.0
  0
LINE
  5
4BC
  8
DATA
  6
STYLE_01
 62
     7
 10
134.96350057267051
 20
-89.910619468072696
 30
0.0
 11
128.20373220946129
 21
-85.639522044771866
 31
0.0
  0
LINE
  5
4BD
  8
DATA
  6
STYLE_01
 62
     7
 10
134.3978151477213
 20
-90.476304893021904
 30
0.0
 11
127.6380467845121
 21
-86.205207469721145
 31
0.0
  0
LINE
  5
4BE
  8
DATA
  6
STYLE_01
 62
     7
 10
132.9836015853482
 20
-91.890518455394997
 30
0.0
 11
126.22383322213901
 21
-87.619421032094195
 31
0.0
  0
LINE
  5
4BF
  8
DATA
  6
STYLE_01
 62
     7
 10
132.41791616039899
 20
-92.456203880344205
 30
0.0
 11
125.6581477971898
 21
-88.185106457043403
 31
0.0
  0
LINE
  5
4C0
  8
DATA
  6
STYLE_01
 62
     7
 10
131.00370259802591
 20
-93.870417442717283
 30
0.0
 11
125.6258688626649
 21
-90.472482694678732
 31
0.0
  0
LINE
  5
4C1
  8
DATA
  6
STYLE_01
 62
     7
 10
130.43801717307659
 20
-94.436102867666506
 30
0.0
 11
128.1332312864935
 21
-92.979845118507228
 31
0.0
  0
ARC
  5
4C2
  8
DATA
  6
STYLE_01
 62
     7
 10
-16.951286848245331
 20
-236.30650596624599
 30
0.0
 40
7.0624999972254789
 50
135.37097212856111
 51
314.62902787143878
  0
LINE
  5
4C3
  8
DATA
  6
STYLE_01
 62
     7
 10
-21.238121406181389
 20
-230.69384558757039
 30
0.0
 11
-21.977457785394421
 21
-231.34500297608591
 31
0.0
  0
LINE
  5
4C4
  8
DATA
  6
STYLE_01
 62
     7
 10
-11.33862646956973
 20
-240.593340524182
 30
0.0
 11
-11.9897838580852
 21
-241.33267690339511
 31
0.0
  0
ARC
  5
4C5
  8
DATA
  6
CONTINUOUS
 62
     7
 10
155.5994174942096
 20
-113.95106876712811
 30
0.0
 40
42.026186852504217
 50
95.050251138079531
 51
114.6022431504652
  0
ARC
  5
4C6
  8
DATA
  6
CONTINUOUS
 62
     7
 10
156.729134616235
 20
-112.57885116329059
 30
0.0
 40
32.69363648426495
 50
90.752298564627964
 51
118.95141603136079
  0
LINE
  5
4C7
  8
DATA
  6
STYLE_05
 62
     7
 10
-260.3000000000377
 20
-304.53212792054529
 30
0.0
 11
-239.6999910497907
 21
-304.53212792054529
 31
0.0
  0
ARC
  5
4C8
  8
DATA
  6
STYLE_05
 62
     7
 10
-238.39727014660511
 20
-276.86951902660218
 30
0.0
 40
25.912349336688969
 50
125.19154122552879
 51
150.96441798786671
  0
ARC
  5
4C9
  8
DATA
  6
STYLE_05
 62
     7
 10
-1026.747426305453
 20
-375.37074876483871
 30
0.0
 40
769.71408165195771
 50
5.2805393938084881
 51
7.3750603996173139
  0
ARC
  5
4CA
  8
DATA
  6
STYLE_05
 62
     7
 10
-243.56654631600841
 20
-273.99994439615472
 30
0.0
 40
19.99999999999995
 50
150.96441798786719
 51
187.3750603996173
  0
ARC
  5
4CB
  8
DATA
  6
STYLE_05
 62
     7
 10
-261.60272090322309
 20
-276.86951902660218
 30
0.0
 40
25.912349336689001
 50
29.035582012133322
 51
54.808458774469287
  0
ARC
  5
4CC
  8
DATA
  6
STYLE_05
 62
     7
 10
526.74743525562462
 20
-375.37074876483871
 30
0.0
 40
769.7140816519576
 50
172.6249396003827
 51
174.71946060619149
  0
ARC
  5
4CD
  8
DATA
  6
STYLE_05
 62
     7
 10
-256.4334447338199
 20
-273.99994439615472
 30
0.0
 40
20.0
 50
352.62493960038267
 51
29.03558201213276
  0
ARC
  5
4CE
  8
DATA
  6
STYLE_05
 62
     7
 10
-249.9999955249142
 20
-260.77702625869489
 30
0.0
 40
6.0778490478664571
 50
56.767802897125129
 51
123.232197102874
  0
TEXT
  5
4CF
  8
DATA
 62
     7
 10
-200.0
 20
-372.00157335069451
 30
0.0
 40
19.003146701388879
  1
ウインドスクリーン
 41
0.7
 11
-200.0
 21
-362.5
 31
0.0
 73
     2
  0
LINE
  5
4D0
  8
DATA
  6
CONTINUOUS
 62
     7
 10
-239.69999104979061
 20
-304.53212792054529
 30
0.0
 11
-212.5
 21
-375.0
 31
0.0
  0
LINE
  5
4D1
  8
DATA
  6
CONTINUOUS
 62
     7
 10
-239.69999104979061
 20
-304.53212792054529
 30
0.0
 11
-225.85282129252241
 21
-322.9079428410268
 31
0.0
  0
LINE
  5
4D2
  8
DATA
  6
CONTINUOUS
 62
     7
 10
-239.69999104979061
 20
-304.53212792054529
 30
0.0
 11
-236.89589772972141
 21
-327.36963533555752
 31
0.0
  0
LINE
  5
4D3
  8
DATA
  6
CONTINUOUS
 62
     7
 10
-212.5
 20
-375.0
 30
0.0
 11
25.0
 21
-375.0
 31
0.0
  0
LINE
  5
4D4
  8
DATA
  6
STYLE_05
 62
     7
 10
-260.3000000000377
 20
104.5321279208648
 30
0.0
 11
-239.6999910497907
 21
104.5321279208648
 31
0.0
  0
ARC
  5
4D5
  8
DATA
  6
STYLE_05
 62
     7
 10
-238.39727014660511
 20
76.869519026921623
 30
0.0
 40
25.912349336689001
 50
209.03558201213329
 51
234.80845877447121
  0
ARC
  5
4D6
  8
DATA
  6
STYLE_05
 62
     7
 10
-1026.747426305453
 20
175.37074876515811
 30
0.0
 40
769.71408165195771
 50
352.62493960038267
 51
354.71946060619149
  0
ARC
  5
4D7
  8
DATA
  6
STYLE_05
 62
     7
 10
-243.56654631600841
 20
73.99994439647412
 30
0.0
 40
20.0
 50
172.62493960038259
 51
209.03558201213281
  0
ARC
  5
4D8
  8
DATA
  6
STYLE_05
 62
     7
 10
-261.60272090322309
 20
76.869519026921623
 30
0.0
 40
25.91234933668899
 50
305.19154122553073
 51
330.96441798786668
  0
ARC
  5
4D9
  8
DATA
  6
STYLE_05
 62
     7
 10
526.74743525562462
 20
175.37074876515811
 30
0.0
 40
769.7140816519576
 50
185.2805393938084
 51
187.37506039961721
  0
ARC
  5
4DA
  8
DATA
  6
STYLE_05
 62
     7
 10
-256.4334447338199
 20
73.99994439647412
 30
0.0
 40
19.99999999999995
 50
330.96441798786719
 51
7.3750603996173254
  0
ARC
  5
4DB
  8
DATA
  6
STYLE_05
 62
     7
 10
-249.9999955249142
 20
60.777026259014342
 30
0.0
 40
6.0778490478664198
 50
236.76780289712619
 51
303.23219710287481
  0
LINE
  5
4DC
  8
DATA
  6
STYLE_05
 62
     7
 10
-44.785602618598219
 20
-65.482812906977983
 30
0.0
 11
-44.785602618598219
 21
-86.082821857225014
 31
0.0
  0
ARC
  5
4DD
  8
DATA
  6
STYLE_05
 62
     7
 10
-72.448211512541661
 20
-87.385542760410516
 30
0.0
 40
25.912349336688909
 50
119.0355820121334
 51
144.80845877447109
  0
ARC
  5
4DE
  8
DATA
  6
STYLE_05
 62
     7
 10
26.05301822569524
 20
700.96461339843506
 30
0.0
 40
769.71408165195555
 50
262.62493960038262
 51
264.71946060619138
  0
ARC
  5
4DF
  8
DATA
  6
STYLE_05
 62
     7
 10
-75.317786142989192
 20
-82.216266591007297
 30
0.0
 40
19.999999999999929
 50
82.624939600382604
 51
119.03558201213271
  0
ARC
  5
4E0
  8
DATA
  6
STYLE_05
 62
     7
 10
-72.448211512541661
 20
-64.180092003792595
 30
0.0
 40
25.912349336688919
 50
215.19154122553061
 51
240.9644179878666
  0
ARC
  5
4E1
  8
DATA
  6
STYLE_05
 62
     7
 10
26.05301822569524
 20
-852.53024816264235
 30
0.0
 40
769.71408165195965
 50
95.280539393808525
 51
97.375060399617325
  0
ARC
  5
4E2
  8
DATA
  6
STYLE_05
 62
     7
 10
-75.317786142989192
 20
-69.349368173195785
 30
0.0
 40
19.99999999999994
 50
240.96441798786731
 51
277.37506039961738
  0
ARC
  5
4E3
  8
DATA
  6
STYLE_05
 62
     7
 10
-88.540704280448949
 20
-75.78281738210147
 30
0.0
 40
6.0778490478664198
 50
146.76780289712619
 51
213.23219710287469
  0
LINE
  5
4E4
  8
DATA
  6
STYLE_05
 62
     7
 10
0.2414979026549986
 20
-204.60454266704531
 30
0.0
 11
14.807903923878159
 21
-219.17094868826851
 31
0.0
  0
ARC
  5
4E5
  8
DATA
  6
STYLE_05
 62
     7
 10
-3.831351625704321
 20
-239.6525298071229
 30
0.0
 40
25.91234933668904
 50
164.0355820121334
 51
189.80845877447121
  0
ARC
  5
4E6
  8
DATA
  6
STYLE_05
 62
     7
 10
-491.62820549197642
 20
387.44609906539222
 30
0.0
 40
769.71408165195578
 50
307.62493960038262
 51
309.71946060619149
  0
ARC
  5
4E7
  8
DATA
  6
STYLE_05
 62
     7
 10
-9.5156775392257202
 20
-238.02639525422231
 30
0.0
 40
20.00000000000005
 50
127.6249396003826
 51
164.03558201213281
  0
ARC
  5
4E8
  8
DATA
  6
STYLE_05
 62
     7
 10
-20.240083216199451
 20
-223.24379821662791
 30
0.0
 40
25.91234933668899
 50
260.1915412255305
 51
285.96441798786668
  0
ARC
  5
4E9
  8
DATA
  6
STYLE_05
 62
     7
 10
606.85854565631325
 20
-711.04065208290035
 30
0.0
 40
769.71408165195385
 50
140.2805393938084
 51
142.37506039961721
  0
ARC
  5
4EA
  8
DATA
  6
STYLE_05
 62
     7
 10
-18.613948663298761
 20
-228.9281241301492
 30
0.0
 40
19.999999999999918
 50
285.96441798786742
 51
322.37506039961761
  0
ARC
  5
4EB
  8
DATA
  6
STYLE_05
 62
     7
 10
-23.414828183334681
 20
-242.82727477425809
 30
0.0
 40
6.0778490478664464
 50
191.7678028971257
 51
258.23219710287458
  0
LINE
  5
4EC
  8
DATA
  6
CONTINUOUS
 62
     7
 10
115.49999999999849
 20
-250.0
 30
0.0
 11
484.50000000000148
 21
-250.0
 31
0.0
  0
LINE
  5
4ED
  8
DATA
  6
CONTINUOUS
 62
     7
 10
115.49999999999891
 20
-691.90000000000032
 30
0.0
 11
115.49999999999891
 21
-250.0
 31
0.0
  0
LINE
  5
4EE
  8
DATA
  6
CONTINUOUS
 62
     7
 10
484.50000000000148
 20
-691.90000000000032
 30
0.0
 11
484.50000000000148
 21
-250.0
 31
0.0
  0
LINE
  5
4EF
  8
DATA
  6
CONTINUOUS
 62
     7
 10
115.49999999999849
 20
-277.0
 30
0.0
 11
484.50000000000148
 21
-277.0
 31
0.0
  0
LINE
  5
4F0
  8
DATA
  6
CONTINUOUS
 62
     7
 10
115.49999999999849
 20
-297.7000000000001
 30
0.0
 11
484.50000000000148
 21
-297.7000000000001
 31
0.0
  0
LINE
  5
4F1
  8
DATA
  6
CONTINUOUS
 62
     7
 10
115.49999999999849
 20
-318.39999999999998
 30
0.0
 11
484.50000000000148
 21
-318.39999999999998
 31
0.0
  0
LINE
  5
4F2
  8
DATA
  6
CONTINUOUS
 62
     7
 10
115.49999999999849
 20
-339.0999999999998
 30
0.0
 11
484.50000000000148
 21
-339.0999999999998
 31
0.0
  0
LINE
  5
4F3
  8
DATA
  6
CONTINUOUS
 62
     7
 10
115.49999999999849
 20
-359.79999999999978
 30
0.0
 11
484.50000000000148
 21
-359.79999999999978
 31
0.0
  0
LINE
  5
4F4
  8
DATA
  6
CONTINUOUS
 62
     7
 10
115.49999999999849
 20
-380.50000000000023
 30
0.0
 11
484.50000000000148
 21
-380.50000000000023
 31
0.0
  0
LINE
  5
4F5
  8
DATA
  6
CONTINUOUS
 62
     7
 10
115.49999999999849
 20
-401.20000000000113
 30
0.0
 11
484.50000000000148
 21
-401.20000000000113
 31
0.0
  0
LINE
  5
4F6
  8
DATA
  6
CONTINUOUS
 62
     7
 10
115.49999999999849
 20
-421.90000000000072
 30
0.0
 11
484.50000000000148
 21
-421.90000000000072
 31
0.0
  0
LINE
  5
4F7
  8
DATA
  6
CONTINUOUS
 62
     7
 10
115.49999999999849
 20
-442.60000000000082
 30
0.0
 11
484.50000000000148
 21
-442.60000000000082
 31
0.0
  0
LINE
  5
4F8
  8
DATA
  6
CONTINUOUS
 62
     7
 10
115.49999999999849
 20
-463.30000000000081
 30
0.0
 11
484.50000000000148
 21
-463.30000000000081
 31
0.0
  0
LINE
  5
4F9
  8
DATA
  6
CONTINUOUS
 62
     7
 10
115.49999999999849
 20
-484.00000000000051
 30
0.0
 11
484.50000000000148
 21
-484.00000000000051
 31
0.0
  0
LINE
  5
4FA
  8
DATA
  6
CONTINUOUS
 62
     7
 10
115.49999999999849
 20
-504.7000000000005
 30
0.0
 11
484.50000000000148
 21
-504.7000000000005
 31
0.0
  0
LINE
  5
4FB
  8
DATA
  6
CONTINUOUS
 62
     7
 10
115.49999999999849
 20
-525.40000000000089
 30
0.0
 11
484.50000000000148
 21
-525.40000000000089
 31
0.0
  0
LINE
  5
4FC
  8
DATA
  6
CONTINUOUS
 62
     7
 10
115.49999999999849
 20
-546.10000000000082
 30
0.0
 11
484.50000000000148
 21
-546.10000000000082
 31
0.0
  0
LINE
  5
4FD
  8
DATA
  6
CONTINUOUS
 62
     7
 10
115.49999999999849
 20
-566.80000000000086
 30
0.0
 11
484.50000000000148
 21
-566.80000000000086
 31
0.0
  0
LINE
  5
4FE
  8
DATA
  6
CONTINUOUS
 62
     7
 10
115.49999999999849
 20
-587.50000000000057
 30
0.0
 11
484.50000000000148
 21
-587.50000000000057
 31
0.0
  0
LINE
  5
4FF
  8
DATA
  6
CONTINUOUS
 62
     7
 10
115.49999999999849
 20
-608.20000000000061
 30
0.0
 11
484.50000000000148
 21
-608.20000000000061
 31
0.0
  0
LINE
  5
500
  8
DATA
  6
CONTINUOUS
 62
     7
 10
115.49999999999849
 20
-628.9000000000002
 30
0.0
 11
484.50000000000148
 21
-628.9000000000002
 31
0.0
  0
LINE
  5
501
  8
DATA
  6
CONTINUOUS
 62
     7
 10
196.49999999999949
 20
-277.0
 30
0.0
 11
196.49999999999949
 21
-628.9000000000002
 31
0.0
  0
LINE
  5
502
  8
DATA
  6
CONTINUOUS
 62
     7
 10
277.50000000000063
 20
-277.0
 30
0.0
 11
277.50000000000063
 21
-628.9000000000002
 31
0.0
  0
LINE
  5
503
  8
DATA
  6
CONTINUOUS
 62
     7
 10
358.50000000000051
 20
-277.0
 30
0.0
 11
358.50000000000051
 21
-628.9000000000002
 31
0.0
  0
TEXT
  5
504
  8
DATA
 62
     7
 10
153.51141406198141
 20
-272.80468811673808
 30
0.0
 40
17.591484375
  1
disconnect before setting
 41
0.7
 72
     1
 11
292.24958749948138
 21
-264.00894592923811
 31
0.0
 73
     2
  0
TEXT
  5
505
  8
DATA
 62
     7
 10
138.88974951234161
 20
-293.26234919283871
 30
0.0
 40
17.591484375
  1
pos
 41
0.7
 72
     1
 11
155.30846826234159
 21
-284.46660700533869
 31
0.0
 73
     2
  0
TEXT
  5
506
  8
DATA
 62
     7
 10
153.50558433446349
 20
-315.92596207234288
 30
0.0
 40
14.6595703125
  1
0
 41
0.7
 72
     1
 11
156.07100913915099
 21
-308.59617691609287
 31
0.0
 73
     2
  0
TEXT
  5
507
  8
DATA
 62
     7
 10
154.360725936026
 20
-336.6259620723431
 30
0.0
 40
14.6595703125
  1
1
 41
0.7
 72
     1
 11
156.07100913915099
 21
-329.29617691609309
 31
0.0
 73
     2
  0
TEXT
  5
508
  8
DATA
 62
     7
 10
152.65044273290101
 20
-357.32596207234292
 30
0.0
 40
14.6595703125
  1
2
 41
0.7
 72
     1
 11
156.07100913915099
 21
-349.99617691609291
 31
0.0
 73
     2
  0
TEXT
  5
509
  8
DATA
 62
     7
 10
152.65044273290101
 20
-378.02596207234291
 30
0.0
 40
14.6595703125
  1
3
 41
0.7
 72
     1
 11
156.07100913915099
 21
-370.6961769160929
 31
0.0
 73
     2
  0
TEXT
  5
50A
  8
DATA
 62
     7
 10
152.65044273290101
 20
-398.72596207234358
 30
0.0
 40
14.6595703125
  1
4
 41
0.7
 72
     1
 11
156.07100913915099
 21
-391.39617691609362
 31
0.0
 73
     2
  0
TEXT
  5
50B
  8
DATA
 62
     7
 10
152.65044273290101
 20
-419.42596207234362
 30
0.0
 40
14.6595703125
  1
5
 41
0.7
 72
     1
 11
156.07100913915099
 21
-412.09617691609373
 31
0.0
 73
     2
  0
TEXT
  5
50C
  8
DATA
 62
     7
 10
152.65044273290101
 20
-440.12596207234373
 30
0.0
 40
14.6595703125
  1
6
 41
0.7
 72
     1
 11
156.07100913915099
 21
-432.79617691609371
 31
0.0
 73
     2
  0
TEXT
  5
50D
  8
DATA
 62
     7
 10
152.65044273290101
 20
-460.82596207234383
 30
0.0
 40
14.6595703125
  1
7
 41
0.7
 72
     1
 11
156.07100913915099
 21
-453.49617691609382
 31
0.0
 73
     2
  0
TEXT
  5
50E
  8
DATA
 62
     7
 10
152.65044273290101
 20
-481.52596207234387
 30
0.0
 40
14.6595703125
  1
8
 41
0.7
 72
     1
 11
156.07100913915099
 21
-474.19617691609398
 31
0.0
 73
     2
  0
TEXT
  5
50F
  8
DATA
 62
     7
 10
152.65044273290101
 20
-502.22596207234358
 30
0.0
 40
14.6595703125
  1
9
 41
0.7
 72
     1
 11
156.07100913915099
 21
-494.89617691609362
 31
0.0
 73
     2
  0
TEXT
  5
510
  8
DATA
 62
     7
 10
152.65044273290101
 20
-522.92596207234362
 30
0.0
 40
14.6595703125
  1
A
 41
0.7
 72
     1
 11
156.07100913915099
 21
-515.59617691609367
 31
0.0
 73
     2
  0
TEXT
  5
511
  8
DATA
 62
     7
 10
152.65044273290101
 20
-543.62596207234355
 30
0.0
 40
14.6595703125
  1
B
 41
0.7
 72
     1
 11
156.07100913915099
 21
-536.29617691609371
 31
0.0
 73
     2
  0
TEXT
  5
512
  8
DATA
 62
     7
 10
152.65044273290101
 20
-564.32596207234337
 30
0.0
 40
14.6595703125
  1
C
 41
0.7
 72
     1
 11
156.07100913915099
 21
-556.99617691609342
 31
0.0
 73
     2
  0
TEXT
  5
513
  8
DATA
 62
     7
 10
152.65044273290101
 20
-585.02596207234353
 30
0.0
 40
14.6595703125
  1
D
 41
0.7
 72
     1
 11
156.07100913915099
 21
-577.69617691609346
 31
0.0
 73
     2
  0
TEXT
  5
514
  8
DATA
 62
     7
 10
152.65044273290101
 20
-605.72596207234335
 30
0.0
 40
14.6595703125
  1
E
 41
0.7
 72
     1
 11
156.07100913915099
 21
-598.3961769160934
 31
0.0
 73
     2
  0
TEXT
  5
515
  8
DATA
 62
     7
 10
152.65044273290101
 20
-626.42596207234305
 30
0.0
 40
14.6595703125
  1
F
 41
0.7
 72
     1
 11
156.07100913915099
 21
-619.0961769160931
 31
0.0
 73
     2
  0
TEXT
  5
516
  8
DATA
 62
     7
 10
223.30743756553721
 20
-294.755868950207
 30
0.0
 40
14.0731875
  1
LED
 41
0.7
 72
     1
 11
236.44241256553721
 21
-287.71927520020699
 31
0.0
 73
     2
  0
TEXT
  5
517
  8
DATA
 62
     7
 10
222.87261627418209
 20
-315.92596207234288
 30
0.0
 40
14.6595703125
  1
off
 41
0.7
 72
     1
 11
236.55488189918211
 21
-308.59617691609287
 31
0.0
 73
     2
  0
TEXT
  5
518
  8
DATA
 62
     7
 10
227.83265848897489
 20
-480.23514740746919
 30
0.0
 40
14.6595703125
  1
on
 41
0.7
 72
     1
 11
236.38407450459991
 21
-472.90536225121912
 31
0.0
 73
     2
  0
TEXT
  5
519
  8
DATA
 62
     7
 10
222.87261627418209
 20
-336.6259620723431
 30
0.0
 40
14.6595703125
  1
off
 41
0.7
 72
     1
 11
236.55488189918211
 21
-329.29617691609309
 31
0.0
 73
     2
  0
TEXT
  5
51A
  8
DATA
 62
     7
 10
222.87261627418209
 20
-357.32596207234292
 30
0.0
 40
14.6595703125
  1
off
 41
0.7
 72
     1
 11
236.55488189918211
 21
-349.99617691609291
 31
0.0
 73
     2
  0
TEXT
  5
51B
  8
DATA
 62
     7
 10
222.87261627418209
 20
-378.02596207234291
 30
0.0
 40
14.6595703125
  1
off
 41
0.7
 72
     1
 11
236.55488189918211
 21
-370.6961769160929
 31
0.0
 73
     2
  0
TEXT
  5
51C
  8
DATA
 62
     7
 10
222.87261627418209
 20
-398.72596207234358
 30
0.0
 40
14.6595703125
  1
off
 41
0.7
 72
     1
 11
236.55488189918211
 21
-391.39617691609362
 31
0.0
 73
     2
  0
TEXT
  5
51D
  8
DATA
 62
     7
 10
222.87261627418209
 20
-419.42596207234362
 30
0.0
 40
14.6595703125
  1
off
 41
0.7
 72
     1
 11
236.55488189918211
 21
-412.09617691609373
 31
0.0
 73
     2
  0
TEXT
  5
51E
  8
DATA
 62
     7
 10
222.87261627418209
 20
-440.12596207234373
 30
0.0
 40
14.6595703125
  1
off
 41
0.7
 72
     1
 11
236.55488189918211
 21
-432.79617691609371
 31
0.0
 73
     2
  0
TEXT
  5
51F
  8
DATA
 62
     7
 10
222.87261627418209
 20
-460.82596207234383
 30
0.0
 40
14.6595703125
  1
off
 41
0.7
 72
     1
 11
236.55488189918211
 21
-453.49617691609382
 31
0.0
 73
     2
  0
TEXT
  5
520
  8
DATA
 62
     7
 10
227.83265848897489
 20
-500.93514740746878
 30
0.0
 40
14.6595703125
  1
on
 41
0.7
 72
     1
 11
236.38407450459991
 21
-493.60536225121882
 31
0.0
 73
     2
  0
TEXT
  5
521
  8
DATA
 62
     7
 10
227.83265848897489
 20
-521.63514740746882
 30
0.0
 40
14.6595703125
  1
on
 41
0.7
 72
     1
 11
236.38407450459991
 21
-514.30536225121875
 31
0.0
 73
     2
  0
TEXT
  5
522
  8
DATA
 62
     7
 10
227.83265848897489
 20
-542.33514740746887
 30
0.0
 40
14.6595703125
  1
on
 41
0.7
 72
     1
 11
236.38407450459991
 21
-535.00536225121891
 31
0.0
 73
     2
  0
TEXT
  5
523
  8
DATA
 62
     7
 10
227.83265848897489
 20
-563.03514740746903
 30
0.0
 40
14.6595703125
  1
on
 41
0.7
 72
     1
 11
236.38407450459991
 21
-555.70536225121896
 31
0.0
 73
     2
  0
TEXT
  5
524
  8
DATA
 62
     7
 10
227.83265848897489
 20
-583.73514740746862
 30
0.0
 40
14.6595703125
  1
on
 41
0.7
 72
     1
 11
236.38407450459991
 21
-576.40536225121855
 31
0.0
 73
     2
  0
TEXT
  5
525
  8
DATA
 62
     7
 10
227.83265848897489
 20
-604.43514740746855
 30
0.0
 40
14.6595703125
  1
on
 41
0.7
 72
     1
 11
236.38407450459991
 21
-597.10536225121871
 31
0.0
 73
     2
  0
TEXT
  5
526
  8
DATA
 62
     7
 10
227.83265848897489
 20
-625.13514740746882
 30
0.0
 40
14.6595703125
  1
on
 41
0.7
 72
     1
 11
236.38407450459991
 21
-617.80536225121875
 31
0.0
 73
     2
  0
TEXT
  5
527
  8
DATA
 62
     7
 10
283.96271840636712
 20
-295.32906391261162
 30
0.0
 40
14.0731875
  1
BASSCUT
 41
0.7
 72
     1
 11
316.80015590636708
 21
-288.29247016261161
 31
0.0
 73
     2
  0
TEXT
  5
528
  8
DATA
 62
     7
 10
303.87261627418252
 20
-315.92596207234288
 30
0.0
 40
14.6595703125
  1
off
 41
0.7
 72
     1
 11
317.55488189918248
 21
-308.59617691609287
 31
0.0
 73
     2
  0
TEXT
  5
529
  8
DATA
 62
     7
 10
303.87261627418252
 20
-336.6259620723431
 30
0.0
 40
14.6595703125
  1
off
 41
0.7
 72
     1
 11
317.55488189918248
 21
-329.29617691609309
 31
0.0
 73
     2
  0
TEXT
  5
52A
  8
DATA
 62
     7
 10
303.87261627418252
 20
-357.32596207234292
 30
0.0
 40
14.6595703125
  1
off
 41
0.7
 72
     1
 11
317.55488189918248
 21
-349.99617691609291
 31
0.0
 73
     2
  0
TEXT
  5
52B
  8
DATA
 62
     7
 10
303.87261627418252
 20
-378.02596207234291
 30
0.0
 40
14.6595703125
  1
off
 41
0.7
 72
     1
 11
317.55488189918248
 21
-370.6961769160929
 31
0.0
 73
     2
  0
TEXT
  5
52C
  8
DATA
 62
     7
 10
303.87261627418252
 20
-481.52596207234348
 30
0.0
 40
14.6595703125
  1
off
 41
0.7
 72
     1
 11
317.55488189918248
 21
-474.19617691609352
 31
0.0
 73
     2
  0
TEXT
  5
52D
  8
DATA
 62
     7
 10
303.87261627418252
 20
-502.22596207234358
 30
0.0
 40
14.6595703125
  1
off
 41
0.7
 72
     1
 11
317.55488189918248
 21
-494.89617691609362
 31
0.0
 73
     2
  0
TEXT
  5
52E
  8
DATA
 62
     7
 10
303.87261627418252
 20
-522.92596207234362
 30
0.0
 40
14.6595703125
  1
off
 41
0.7
 72
     1
 11
317.55488189918248
 21
-515.59617691609367
 31
0.0
 73
     2
  0
TEXT
  5
52F
  8
DATA
 62
     7
 10
303.87261627418252
 20
-543.62596207234355
 30
0.0
 40
14.6595703125
  1
off
 41
0.7
 72
     1
 11
317.55488189918248
 21
-536.29617691609371
 31
0.0
 73
     2
  0
TEXT
  5
530
  8
DATA
 62
     7
 10
309.40057673729149
 20
-396.48549848867088
 30
0.0
 40
14.6595703125
  1
on
 41
0.7
 72
     1
 11
317.95199275291651
 21
-389.15571333242087
 31
0.0
 73
     2
  0
TEXT
  5
531
  8
DATA
 62
     7
 10
309.40057673729149
 20
-417.18549848867121
 30
0.0
 40
14.6595703125
  1
on
 41
0.7
 72
     1
 11
317.95199275291651
 21
-409.8557133324212
 31
0.0
 73
     2
  0
TEXT
  5
532
  8
DATA
 62
     7
 10
309.40057673729149
 20
-437.88549848867132
 30
0.0
 40
14.6595703125
  1
on
 41
0.7
 72
     1
 11
317.95199275291651
 21
-430.55571333242131
 31
0.0
 73
     2
  0
TEXT
  5
533
  8
DATA
 62
     7
 10
309.40057673729149
 20
-458.58549848867091
 30
0.0
 40
14.6595703125
  1
on
 41
0.7
 72
     1
 11
317.95199275291651
 21
-451.2557133324209
 31
0.0
 73
     2
  0
TEXT
  5
534
  8
DATA
 62
     7
 10
308.83265848897491
 20
-563.03514740746903
 30
0.0
 40
14.6595703125
  1
on
 41
0.7
 72
     1
 11
317.38407450459988
 21
-555.70536225121896
 31
0.0
 73
     2
  0
TEXT
  5
535
  8
DATA
 62
     7
 10
308.83265848897491
 20
-583.73514740746862
 30
0.0
 40
14.6595703125
  1
on
 41
0.7
 72
     1
 11
317.38407450459988
 21
-576.40536225121855
 31
0.0
 73
     2
  0
TEXT
  5
536
  8
DATA
 62
     7
 10
308.83265848897491
 20
-604.43514740746855
 30
0.0
 40
14.6595703125
  1
on
 41
0.7
 72
     1
 11
317.38407450459988
 21
-597.10536225121871
 31
0.0
 73
     2
  0
TEXT
  5
537
  8
DATA
 62
     7
 10
308.83265848897491
 20
-625.13514740746882
 30
0.0
 40
14.6595703125
  1
on
 41
0.7
 72
     1
 11
317.38407450459988
 21
-617.80536225121875
 31
0.0
 73
     2
  0
TEXT
  5
538
  8
DATA
 62
     7
 10
392.3677263077501
 20
-295.32906391261162
 30
0.0
 40
14.0731875
  1
SWITCH
 41
0.7
 72
     1
 11
420.27954818274998
 21
-288.29247016261161
 31
0.0
 73
     2
  0
TEXT
  5
539
  8
DATA
 62
     7
 10
392.3677263077501
 20
-315.742969081686
 30
0.0
 40
14.0731875
  1
on/off
 41
0.7
 72
     1
 11
420.27954818274998
 21
-308.70637533168599
 31
0.0
 73
     2
  0
TEXT
  5
53A
  8
DATA
 62
     7
 10
368.21885778706297
 20
-335.58468458891002
 30
0.0
 40
14.0731875
  1
push to talk
 41
0.7
 72
     1
 11
419.28107309956289
 21
-328.54809083891001
 31
0.0
 73
     2
  0
TEXT
  5
53B
  8
DATA
 62
     7
 10
366.0421448054874
 20
-356.57077941983528
 30
0.0
 40
14.0731875
  1
push to mute
 41
0.7
 72
     1
 11
419.5671679304873
 21
-349.53418566983532
 31
0.0
 73
     2
  0
TEXT
  5
53C
  8
DATA
 62
     7
 10
418.27485689729849
 20
-377.27077941983538
 30
0.0
 40
14.0731875
  1
-
 41
0.7
 72
     1
 11
421.55860064729848
 21
-370.23418566983543
 31
0.0
 73
     2
  0
TEXT
  5
53D
  8
DATA
 62
     7
 10
392.3677263077501
 20
-397.97077941983582
 30
0.0
 40
14.0731875
  1
on/off
 41
0.7
 72
     1
 11
420.27954818274998
 21
-390.9341856698357
 31
0.0
 73
     2
  0
TEXT
  5
53E
  8
DATA
 62
     7
 10
368.21885778706297
 20
-418.38468458891077
 30
0.0
 40
14.0731875
  1
push to talk
 41
0.7
 72
     1
 11
419.28107309956289
 21
-411.34809083891082
 31
0.0
 73
     2
  0
TEXT
  5
53F
  8
DATA
 62
     7
 10
366.0421448054874
 20
-439.37077941983591
 30
0.0
 40
14.0731875
  1
push to mute
 41
0.7
 72
     1
 11
419.5671679304873
 21
-432.3341856698359
 31
0.0
 73
     2
  0
TEXT
  5
540
  8
DATA
 62
     7
 10
418.27485689729849
 20
-460.07077941983607
 30
0.0
 40
14.0731875
  1
-
 41
0.7
 72
     1
 11
421.55860064729848
 21
-453.03418566983612
 31
0.0
 73
     2
  0
TEXT
  5
541
  8
DATA
 62
     7
 10
392.3677263077501
 20
-480.77077941983617
 30
0.0
 40
14.0731875
  1
on/off
 41
0.7
 72
     1
 11
420.27954818274998
 21
-473.73418566983622
 31
0.0
 73
     2
  0
TEXT
  5
542
  8
DATA
 62
     7
 10
368.21885778706297
 20
-501.18468458891078
 30
0.0
 40
14.0731875
  1
push to talk
 41
0.7
 72
     1
 11
419.28107309956289
 21
-494.14809083891078
 31
0.0
 73
     2
  0
TEXT
  5
543
  8
DATA
 62
     7
 10
366.0421448054874
 20
-522.17077941983575
 30
0.0
 40
14.0731875
  1
push to mute
 41
0.7
 72
     1
 11
419.5671679304873
 21
-515.1341856698358
 31
0.0
 73
     2
  0
TEXT
  5
544
  8
DATA
 62
     7
 10
418.27485689729849
 20
-542.8707794198358
 30
0.0
 40
14.0731875
  1
-
 41
0.7
 72
     1
 11
421.55860064729848
 21
-535.83418566983585
 31
0.0
 73
     2
  0
TEXT
  5
545
  8
DATA
 62
     7
 10
392.3677263077501
 20
-563.57077941983584
 30
0.0
 40
14.0731875
  1
on/off
 41
0.7
 72
     1
 11
420.27954818274998
 21
-556.53418566983601
 31
0.0
 73
     2
  0
TEXT
  5
546
  8
DATA
 62
     7
 10
368.21885778706297
 20
-583.98468458891034
 30
0.0
 40
14.0731875
  1
push to talk
 41
0.7
 72
     1
 11
419.28107309956289
 21
-576.94809083891039
 31
0.0
 73
     2
  0
TEXT
  5
547
  8
DATA
 62
     7
 10
366.0421448054874
 20
-604.97077941983571
 30
0.0
 40
14.0731875
  1
push to mute
 41
0.7
 72
     1
 11
419.5671679304873
 21
-597.93418566983576
 31
0.0
 73
     2
  0
TEXT
  5
548
  8
DATA
 62
     7
 10
418.27485689729849
 20
-625.67077941983587
 30
0.0
 40
14.0731875
  1
-
 41
0.7
 72
     1
 11
421.55860064729848
 21
-618.63418566983592
 31
0.0
 73
     2
  0
LINE
  5
549
  8
DATA
  6
CONTINUOUS
 62
     7
 10
115.49999999999849
 20
-691.90000000000032
 30
0.0
 11
484.50000000000148
 21
-691.90000000000032
 31
0.0
  0
TEXT
  5
54A
  8
DATA
 62
     7
 10
272.36159817034053
 20
-666.28779263499632
 30
0.0
 40
15.636875
  1
Made in Philippines
 41
0.7
 11
272.36159817034053
 21
-658.46935513499625
 31
0.0
 73
     2
  0
TEXT
  5
54B
  8
DATA
 62
     7
 10
230.3851392505787
 20
-226.31262172005071
 30
0.0
 40
19.003146701388879
  1
設定スイッチ拡大図
 41
0.7
 72
     1
 11
300.0
 21
-216.8110483693562
 31
0.0
 73
     2
  0
ENDSEC
  0
EOF
